Song name
# A B C D E F G H I J K L M N O P Q R S T U V W X Y Z

Misc Unsigned Bands - Virtue - We Stand To Fight tab

this is not the complete intro. i haven't figured out the harmony part yet

Guitar 1

--------------------------------------------------|
--------------------------------------------------|
--------------------------------------------------|
--------------------------------------------------|
--17-18-17-18----18-17-18----18-17-18----18-17-18-|
--------------17----------18----------17----------|

Guitar 2

---------------------------|
---------------------------|
---------------------------|
-7-7--3-3------------------|
-5-5--1-1--5-5--3--2-------|
-----------3-3--1--0-------|
Tap to rate this tab
 
# A B C D E F G H I J K L M N O P Q R S T U V W X Y Z