Song name
# A B C D E F G H I J K L M N O P Q R S T U V W X Y Z

Misc Unsigned Bands - Bulldog Mansion - Happy Birthday To Me chords

Highlighted       Show chord diagrams
----------------------------------------------------------------
HAPPY BIRTHDAY TO ME  Bulldog Mansion
-----------------------------------------------------------------
Tabbed by: guitarx105
Email: guitarx105@aol.com
Tuning: Standard

From the flash video "There She Is!! Step 2: Cake Dance" by Sambakza



       D       G       A        F#m       Bm OR Bm*      
e|-----x------(3)-----(5)-----(2)-----(2)-(7)----------------------|
B|-----x------(3)-----(5)-----(2)-----(2)-(7)----------------------|
G|-----7-------4-------6------(2)------4----7-----------------------|
D|-----7-------5-------7-------4-------4----9-----------------------|
A|-----5-------5-------7-------4-------2----9-----------------------|
E|-----x-------3-------5-------2-------x----7-----------------------|

      D#      G#        A#      Gm    C 
e|-----x------(4)-----(6)-----(3)-----(3)-------------------------|
B|-----x------(4)-----(6)-----(3)-----(3)-------------------------|
G|-----8-------5-------7------(3)------5---------------------------|
D|-----8-------6-------8-------5-------5---------------------------|
A|-----6-------6-------8-------5-------3---------------------------|
E|-----x-------4-------6-------3-------x---------------------------|

Regular chords work fine as well, but power chords make things really easy after the key change.


Intro: D G A G x4

Verse

D      G            A        G
A-jik nu-wo-it-neun Monday
D          G       A           G
Geu-reo-ge ma-ri-ya Tuesday


Pre-Chorus

G                    A
Cha-ga-un geu-nyeo-bo-da cha-gap-ge
G			A	
Jam-deun nae-mameul kkam-jjak nola-ge 
D		G A
hae-jwo-yo
G	     D		G A G
A-jik eoreol-han geol

Verse D G A G X2
D	G	    A		G
Hakkyo-gagi si-reun Wednesday
D	G	A	G
Geuredo ga-yaji Thursday


Pre-Chorus
G			A
Meong-cheong-hi ha-rul sal-sun eob-jana
G			A
Mwon-jin mol-ra-do il-dan ttwi-eo-bwa

Chorus
D
It's my birthday
	        F#m
Honja-man-ui Firstday
 	    Bm	    		G
Du-geun-dae-neun nan hwak dalla-jil geo-ya
                A 	G	    A
Neon moreu-gejji-man na dasi tae-eo-na
          G    A   G   A    
Neo-e-ge-ro gal geo-ya

D G A G x2

Verse

D	   G	          A	      G
Eo-jjeon-ji ga-bbun-han Friday
D	    G	         A         G
Dat-sae-na gi-da-ryeo Saturday
G		     A
Saturday night fever ra-ji-man
G			A
Ma-ttang-ha-ge gal-got-do eob-neun nan




Chorus
D
It's my birthday
	        F#m
Honja-man-ui Firstday
 	    Bm	    		G
Du-geun-dae-neun nan hwak dalla-jil geo-ya
                A 	G	    A
Neon moreu-gejji-man na dasi tae-eo-na
          G    A   G   A    
Neo-e-ge-ro gal geo-ya

Bridge/Solo
Bm*  Am x2 
Bm* Am Bm* Dm Bm* Am 
Bm* Am x2  Bm*
X4

Chorus

D	    G	       A	    G   
O-neureun neo-wa-wi sweet day 
D	G	   A
baram machi-jin mara-jwo

D				
It's my birthday neo-wa ham-kke

(key change!)

D#		    Gm
Sweet day uri-deul-wi first day
       C	   		    G#
Ni gyeotte it-neun nae son-eul not-chi-ma

A#    G#   A#  G#    D#
Neol sa-rang-hae birthday
 	           Gm
Cheo-eum-i-ya firstday
C			G#
Du-geun-dae-neun nan hwak dalla-jil geo-ya
 		     A#	       G#		A#
Neon moreunda hae-do na o-neul-man-keum-eun
G#       A #   G#  A#   
Neo-wa ham-kke hal geo-ya

D# G# A# G# x4 end on D#


Pattern for whole song:

Intro/Verse: D G A G x2
Pre-Chorus: G A x2
Chorus: D F#m Bm G A (G A x3)
Bridge/Solo: Bm Am, throw in a Dm sometimes. Play around with it. Not too sure on it.

Key Change, up a half step:
Chorus: D# Gm Cm G# A# (G# A# x3)
Outro: D# G# A# G# x4
Tap to rate this tab
# A B C D E F G H I J K L M N O P Q R S T U V W X Y Z