Song name
# A B C D E F G H I J K L M N O P Q R S T U V W X Y Z

Misc Unsigned Bands - The Ailment - The Flood tab

-------------------------------------------------------------------------------
			     THE FLOOD - The Ailment
-------------------------------------------------------------------------------
Tabbed by: Doyle
Email: es_ftwr@hotmail.com

Tuning 6 String:  A E A D F# B 

|-----------------|
|-----------------|
|-----------------|
|-0-------5-4-1-4-|
|-0--0-0--5-4-1-4-|
|-0--0-0--5-4-1-4-|
  -  . .  . . . .

|--------|
|--------|
|--------|
|-0------|
|-0--0-0-|
|-0--0-0-|
  -  . .

|---------------------------------------------------------------------------------|
|---------------------------------------------------------------------------------|
|---------------------------------------------------------------------------------|
|---------------------------------------------------------------------------------|	x 2
|-----------4444------4444--------------------------5555------5555-4444-1111-4444-|
|-0000-1111------1111------1111-0000-1111-0000-2222------2222---------------------| 

|---------------------------------------------------------|
|---------------------------------------------------------|
|---------------------------------------------------------|
|---------------------------------------------------------| x 4
|-4-------4-------4-------4-------5-------5---------1-0-3-|
|---2-1-0---2-1-0---2-1-0---2-1-0---3-2-0---3-2-0-0-1-0---|
    . . .   . . .   . . .   . . .   . . .   . . .   . . *

|---------------|
|---------------|
|---------------|
|---------------|
|-00--00--00-00-|
|-00--00--00-00-|
  ..  ..  .. ..

|---------------|
|---------------|
|---------------|
|---------------| x 8
|-00--0-0--00---|
|-00--0-0--00---|
  ..  . .  ..


SOLO START

|--------------|
|--------------|
|-11br-11/12-8-|
|--------------|
|--------------|
|--------------|
             ~

|-----------------------------------------------------------------|
|-----------------------------------------------------------------|
|-7-8-11-12-11-8-7-8-11-15-11-8-7-8-11-17-11-17-11-8-7-8-11-19-17-|
|-----------------------------------------------------------------|
|-----------------------------------------------------------------|
|-----------------------------------------------------------------|
|-----------------------------------------------------------------|
   h h  t  p  p p h h  t  p  p p h h  t     t     p p h h  t ~  ~

|----------------------------|
|----------------------------|
|-15-14h15p14----14-------15-|
|-------------17----17-13----|
|----------------------------|
|----------------------------|
                          ~

|-------13-17--17-13----------------|
|----15--------------15-------------|
|-14--------------------14----------|
|--------------------------15-------|
|-----------------------------17-12-|
|-----------------------------------|
                                 ~

|----------------13-17-18-17-------------------------------12-16-17-16----------------|
|-------------15-------------15-------------------------14-------------14-------------|
|----------14-------------------14-------------------13-------------------13----------|
|-------15-------------------------15-------------14-------------------------14-------|
|-12-17-------------------------------17-12-11-16-------------------------------16-11-|
|-------------------------------------------------------------------------------------|
                      t                                         t

|----------------13-17--17-13----------------|
|-------------15--------------15-------------|
|----------14--------------------14----------|
|-------15--------------------------15-------|
|-12-17--------------------------------17-12-|
|--------------------------------------------|       
                                          ~      
|----------------13-17-18-17-------------------------------12-16-17-16----------------|
|-------------15-------------15-------------------------14-------------14-------------|
|----------14-------------------14-------------------13-------------------13----------|
|-------15-------------------------15-------------14-------------------------14-------|
|-12-17-------------------------------17-12-11-16-------------------------------16-11-|
|-------------------------------------------------------------------------------------|
                      t                                         t

SOLO END


|--------|
|--------|
|--------|
|-0------|
|-0--0-0-|
|-0--0-0-|
  -  . .

|---------------------------------------------------------------------------------|
|---------------------------------------------------------------------------------|
|---------------------------------------------------------------------------------|
|---------------------------------------------------------------------------------| x 4
|-------------------------------------------------------------4444-1111-----------|
|-0000-1111-4444-1111-3333-1111-3333-1111-0000-1111-4444-1111-----------4444-1111-|

|--------------------------------------|
|--------------------------------------|
|--------------------------------------|
|-------5-------4-------5------4-7-----|
|-0-1-0-3-0-1-0-2-0-1-0-3--3-6-----3-6-| x 4
|-0-1-0---0-1-0---0-1-0----------------|
  . . .   . . .   . . .


|------------------------|
|------------------------|
|------------------------|
|--0--0--0-----------5-1-|
|--0--0--0---0-4-1-0-5-1-|
|--1--1--1---0-4-1-0-5-1-|
   -  -  -   . . . .   -

|--------------------------|
|--------------------------|
|--------------------------|
|---------5-1----------5-1-|
|-0-4-1-0-5-1--0-4-1-0-5-1-|
|-0-4-1-0-5-1--0-4-1-0-5-1-|
  . . . .   -  . . . . 

************************************

| .   Palm mute
| *   Pinch harmonic
| /   slide up
| \   slide down
| h   hammer-on
| p   pull-off
| t   tap
| -   let ring
| ~   vibrato
| b   Bend
| br  Bend release

************************************
Tap to rate this tab
# A B C D E F G H I J K L M N O P Q R S T U V W X Y Z