Song name
# A B C D E F G H I J K L M N O P Q R S T U V W X Y Z

Misc Unsigned Bands - T-rex Planet - Back From The Dead To Kick You In The Bread tab

Title: Back From the Dead (To Kick You in the Bread)
Artist: T-Rex Planet
Tabbed By: Victor Hemsley

Due to request I decided to tab this song out. If anyone's interested in more T-
Rex Planet tabs, let me know!

Tuning: Standard


Intro: (x2)

e|--------------------------------------------------------------------------|
B|----------------------------------------------8h10-8----------------------|
G|-7-7-9-10-9-7-7-10h12-10/9-7---7-7-9-10-9-7-7-------h10-7-----------------|
D|--------------------------------------------------------------------------|
A|--------------------------------------------------------------------------|
E|--------------------------------------------------------------------------|


Verse 1: (x2)

e|--------------------------------------------------------------------------|
B|--------------------------------------------------------------------------|
G|-7-7-7-7-7-7-7-7-7-7-7-7-7-7-7-7---3-3-3-3-3-3-3-3-3-3-3-3-3-3-3-3--------|
D|-7-7-7-7-7-7-7-7-7-7-7-7-7-7-7-7---3-3-3-3-3-3-3-3-3-3-3-3-3-3-3-3--------|
A|-5-5-5-5-5-5-5-5-5-5-5-5-5-5-5-5---1-1-1-1-1-1-1-1-1-1-1-1-1-1-1-1--------|
E|--------------------------------------------------------------------------|

e|--------------------------------------------------------------------------|
B|--------------------------------------------------------------------------|
G|-5-5-5-5-5-5-5-5-5-9-9-9-9/101010--3-3-3-3-3-3-3-3-3-3-3-3-3-101010-------|
D|-5-5-5-5-5-5-5-5-5-*-*-*-*/*-*-*---3-3-3-3-3-3-3-3-3-3-3-3-3-*-*-*--------|
A|-3-3-3-3-3-3-3-3-3-7-7-7-7/8-8-8---1-1-1-1-1-1-1-1-1-1-1-1-1-8-8-8--------|
E|--------------------------------------------------------------------------|


Chorus: (x2)

e|--------------------------------------------------------------------------|
B|--------------------------------------------------------------------------|
G|-7-7-7-7-7-7-7-7-7-7-7-7-7-7-7-7---10101010101010101010101010101010-------|
D|-7-7-7-7-7-7-7-7-7-7-7-7-7-7-7-7---10101010101010101010101010101010-------|
A|-5-5-5-5-5-5-5-5-5-5-5-5-5-5-5-5---8-8-8-8-8-8-8-8-8-8-8-8-8-8-8-8--------|
E|--------------------------------------------------------------------------|

e|--------------------------------------------------------------------------|
B|--------------------------------------------------------------------------|
G|--------------------------------------------------------------------------|
D|-5-5-5-5-5-5-5-5-5-5-5-5-5-5-5-5---8-8-8-8-8-8-8-8-1010101010101010-------|
A|-5-5-5-5-5-5-5-5-5-5-5-5-5-5-5-5---8-8-8-8-8-8-8-8-1010101010101010-------|
E|-3-3-3-3-3-3-3-3-3-3-3-3-3-3-3-3---6-6-6-6-6-6-6-6-8-8-8-8-8-8-8-8--------|


Post-Chorus:

e|--------------------------------------------------------------------------|
B|--------------------------------------------------------------------------|
G|--------------------------------------------------------------------------|
D|--10101010101010101010101010----------------------------------------------|
A|--10101010101010101010101010----------------------------------------------|
E|--8-8-8-8-8-8-8-8-8-8-8-8-8-----------------------------------------------|


Verse 2: (No guitar)

Chorus: (x2)

Post-Chorus 2:

e|--------------------------------------------------------------------------|
B|--------------------------------------------------------------------------|
G|-----------------------------7-7-----7------------------------------------|
D|--10-------------------------7-7-----7---8---5----------------------------|
A|--10-------------------------5-5-----5---8---5----------------------------|
E|--8--------------------------------------6---3----------------------------|

Bridge: (No guitar)

Chorus: (x2)

Post-Chorus 3:

e|--------------------------------------------------------------------------|
B|--------------------------------------------------------------------------|
G|-7-7-----7----------------------------------------------------------------|
D|-7-7-----7---8---5--------------------------------------------------------|
A|-5-5-----5---8---5--------------------------------------------------------|
E|-------------6---3--------------------------------------------------------|


And that's it! Really easy stuff.
Tap to rate this tab
 
# A B C D E F G H I J K L M N O P Q R S T U V W X Y Z