Song name
# A B C D E F G H I J K L M N O P Q R S T U V W X Y Z

Misc Unsigned Bands - Anthony - Flower tab

INTRO
e|-------------------------------------------------------------|
B|-----------------------------------------------5--3---3------|
G|---------------------------------------0--7--5------0---0----|
D|----0--7--5--4--5--2--2h4p2p0--0--2--5--------------------4--|
A|--5---------------------------------------------------------5|
E|-------------------------------------------------------------|

VERSE 1
e|--------------------------------------------------------------------|
B|------------------------------------------------------5--3---3------|
G|------------------5---------------------------0--7--5------0---0----|
D|----0--7--5--5/7----4--2--0--2h4p2p0--0--2--5--------------------4--|
A|--5----------------------------------------------------------------5|
E|--------------------------------------------------------------------|

PRE-CHORUS
e|--0--------------0-----5---0------------|
B|--3--------3-------3-----3---5p3--------|
G|--0----0-----0-------0-----------0------|
D|--4------4-----4-------------------4----|
A|--5--5-------------------------------5--|
E|----------------------------------------|

CHORUS 1
e|--0\0--------------0-----3---0------------0/0---0------------------|
B|--3\1--------1-------1-----1---3p1--------1/3-------3--------------|
G|--0\0----0-----0-------0-----------0------0/0-----------0----------|
D|--4\2------2-----2-------------------2----2/4---------------4------|
A|--5\3--3-------------------------------3--3/5-------------------5--|
E|-------------------------------------------------------------------|
Tap to rate this tab
# A B C D E F G H I J K L M N O P Q R S T U V W X Y Z