Song name
# A B C D E F G H I J K L M N O P Q R S T U V W X Y Z

Misc Unsigned Bands - You And I - Lightdog tab

-------------------------------------------------------------------------------
			    you and i - lightdog
-------------------------------------------------------------------------------
Tabbed by:lightdog
Email:

Tuning: standard tuning. whole song is based around e chord. and chuck in an
a chord every now and agin.

litlle lick at the start.

e|-----0----0----7------------------------------------------------------------|
B|-----5----5----5------------------------------------------------------------|
G|----6----6----6-------------------------------------------------------------|
D|----------------------------------------------------------------------------|
A|----------------------------------------------------------------------------|
E|----------------------------------------------------------------------------|

you, you and i have busy life together
it was good when it started, but hurts now baby.
where not suppose to be and thats the way i see it.
the fires gon out and it burnt a scare on my heart.
because now you, you and i were not supposed to be now girl. no no no no.

long days worken and all nite keepin.
no time for us and that was what was missin.
its gunna hurt but thats ok better now that later
you'll be ok, adios sin-you-ritta.
because now you, you and i were not supposed to be now girl.

i quitten up my job so now i go surfin,
its gunna work now all this time to go riden.
be fat winter swells puchin up the south coast.
on a plane to mexico to go and make theeeeee moast.


solo
e|------------------------------------------------------------------------|
B|---9----9-7-5---5555---9--5--7h9r7--77---5------------------------------|
G|--9----9-9--------------------------------------------------------------|
D|------------------------------------------------------------------------|
A|------------------------------------------------------------------------|
E|------------------------------------------------------------------------|

e|--10h12-9h10-7h9-5h7-4h5-2h4--------------------------------------------|
B|-----------------------------2-/5---------------------------------------|
G|------------------------------------------------------------------------|
D|------------------------------------------------------------------------|
A|------------------------------------------------------------------------|
E|------------------------------------------------------------------------|
************************************

| /   slide up
| \   slide down
| h   hammer-on
Tap to rate this tab
 
# A B C D E F G H I J K L M N O P Q R S T U V W X Y Z