Song name
# A B C D E F G H I J K L M N O P Q R S T U V W X Y Z

Misc Unsigned Bands - Gratalazza - Song 1 tab

GRATALAZZA-SONG #1


:TUNING-DROP C#


INTRO                                     3x                  1x
|------------------------------------------|-------------------|
|------------------------------------------|-------------------|
|------------------------------------------|---------------9b--|
|------------------------------------------|-------------------|
|------------------------------------------|--0--5-7-0-9-7-----|
|--0-0-7-9-0-0-11-9-0-0-7-9-0-0-5-7-0-0-0--|-------------------|
pm . . . . . . .  . . . . . . . . . . . .     .  . . . . .


VERSE 1X
|-------------------------------------------------------------------|
|-------------------------------------------------------------------|
|-------------------------------------------------------------------|
|-------------------------------------------------------------------|
|-------------------------------------------------------------------|
|--5-5-5-5-5-5-5-5-5-5-5-5-5-5-5-5-7-5-5-5-5-5-5-5-5-5-5-5-5-5-5-5--|
|-------------------------------------------------------------------|
|pm. . . . . . . . . . . . . . . . . . . . . . . . . . . . . . . . 
|
|-------------------------------------------------------------------|
|-------------------------------------------------------------------|
|-------------------------------------------------------------------|
|-------------------------------------------------------------------|
|--9-7-7-7-7-7-7-7-7-7-7-7-7-7-7-7-9-5-5-5-5-5-5-5-5-5-5-5-5-5-5-5--|
|-------------------------------------------------------------------|
|pm. . . . . . . . . . . . . . . . . . . . . . . . . . . . . . . .
|
|-------------------|-------------------|
|-------------------|-------------------|
|-------------------|---------------9b--|
|-------------------|-------------------|
|--7-3-3-3-3-3-3-3--|--0--5-7-0-9-7-----|
|-------------------|-------------------|
pm . . . . . . . .     .  . . . . .


CHORUS 2X
|-------------------------------------------------------------------|
|-------------------------------------------------------------------|
|-------------------------------------------------------------------|
|-------------------------------------------------------------------|
|--9-9-9-9-9-9-9-9-9-9-9-9-9-9-9-9-7-7-7-7-7-7-7-7-7-7-7-7-7-7-7-7--|
|--9-9-9-9-9-9-9-9-9-9-9-9-9-9-9-9-7-7-7-7-7-7-7-7-7-7-7-7-7-7-7-7--|
|  . .   .   . .   .   . .   .   . . .   .   . .   .   . .   .   . 
|
|--------------------------------------------------------------------|
|--------------------------------------------------------------------|
|--------------------------------------------------------------------|
|--------------------------------------------------------------------|
|--5-5-5-5-5-5-5-5-5-5-5-5-5-5-5-5-4--4-4-4-4-4-4-4-4-4-4-4-4-4-4-4--|
|--5-5-5-5-5-5-5-5-5-5-5-5-5-5-5-5-4--4-4-4-4-4-4-4-4-4-4-4-4-4-4-4--|
   . .   .   . .   .   . .   .   .    . .   .   . .   .   . .   . 

VERSE 1X
|-------------------|-------------------------------------------------------|
|-------------------|-------------------------------------------------------|
|---------------9b--|-------------------------------------------------------|
|-------------------|--7-7-7-7-7-7-7-7-7-7-7-7-7-7-7-7-11-9-9-9-9-9-9-9-9-9-|
|--0--5-7-0-9-7-----|--5-5-5-5-5-5-5-5-5-5-5-5-5-5-5-5--9-7-7-7-7-7-7-7-7-7-|
|-------------------|-------------------------------------------------------|
|
|
|--------------------------------------------------------------------|
|--------------------------------------------------------------------|
|--------------------------------------------------------------------|
|--9-9-9-9-9-9-9-11-7-7-7-7-7-7-7-7-7-7-7-7-7-7-7-9-5-5-5-5-5-5-5-5--|
|--7-7-7-7-7-7-7--9-5-5-5-5-5-5-5-5-5-5-5-5-5-5-5-7-3-3-3-3-3-3-3-3--|
|--------------------------------------------------------------------|
|                   
|                   
|-------------------|-------------|-----------------------------------------|
|-------------------|-------------|-----------------------------------------|
|---------------9b--|-------------|-----------------------------------------|
|-------------------|--CHORUS-3X--|-SOOLO/KAKKOS-KITARA-SOITTAA-CHORUSTA-3X-|
|--0--5-7-0-9-7-----|-------------|-----------------------------------------|
|-------------------|-------------|-----------------------------------------|


SOOLO/YKKÍS OSA                      6x
|-------------------------------------|
|-------------------------------------|
|-------------------------------------|
|--7-7-8-8-9-9-7-7-8-8-10-10-8-8-9-9--|
|-------------------------------------|
|-------------------------------------|
   . . . . . . . . . . . . . . . . .

SOOLO/KAKKOS OSA
|-------------------------------------------------------------------------|-
|-------------------------------------------------------------------------|-
|-------------------------------------------------------------------------|-
|--\14--14b--12\16--16b--17-17-17-17-17b-17-17-17-17-17b-17-17-17-17-17b--|-
|-------------------------------------------------------------------------|-
|-------------------------------------------------------------------------|-
                                         |_________fast picking_________|

-|------------------------------------------------------------------------|-
-|------------------------------------------------------------------------|-
-|------------------------------------------------------------------------|-
-|-17-17-17-17-17b-15-15-15-15-15b-15-15-15-15-15b-15-15-15-15-15b-15-15--|-
-|------------------------------------------------------------------------|-
-|------------------------------------------------------------------------|-
  |______________________________fast picking___________________________|

-|------------------------------------------------------------|
-|------------------------------------------------------------|
-|---------------------------------------------15b--15b--15b--|
-|--15-15-15b-18b-18b-18b-18b-18b-18b-18b-18b-----------------|
-|------------------------------------------------------------|
-|------------------------------------------------------------|
   |_________________fast picking____________|

SOOLO/KOLMAS OSA                        7x                                 6x
|------------------|--------------------|---------------|----------15-15-17-|
|----------15--17--|----------15-15-17--|---------------|-15-15-17----------|
|--15--17----------|-15-15-17-----------|-17b--17b--17b-|-------------------|
|------------------|--------------------|---------------|-------------------|
|------------------|--------------------|---------------|-------------------|
|------------------|--------------------|---------------|-------------------|
|
|
|----------------------------------------------------------------|
|--17b--17b--17-15-17-15-17-15-17-15-----------------------------|
|------------------------------------17-15-17-15-17-15-17-15-----|
|------------------------------------------------------------15b-|
|----------------------------------------------------------------|
|----------------------------------------------------------------|
|
|
|-------------------------|
|-------------------------|
|-17-15-17-15-------------|
|-------------17-15-17~~--|
|-------------------------|
|-------------------------|

SOOLO/NELOS OSA[KAIKKI FAST PICKING]
|-------------------------------------------------------------------------|
|-------------------------------------------------------------------------|
|-------------------------------------------------------------------------|
|-17-17-17-17-17-17-17-17-15-15-15-15-15-15-15-15-13-13-13-13-13-13-13-13-|
|-------------------------------------------------------------------------|
|-------------------------------------------------------------------------|
|
|
|--------------------------------|
|--------------------------------|
|--------------------------------|
|-10-10-10-10-10-10-10-10-7~~~~--|
|--------------------------------|
|--------------------------------|

SOOLO/VITOS OSA                      6x
|-------------------------------------|-------|------------------|----------|
|-------------------------------------|-------|------------------|----------|
|-------------------------------------|-------|---------------9b-|----------|
|--7-7-8-8-9-9-7-7-8-8-10-10-8-8-9-9--|-9~~~~-|------------------|-CHORUS-3x|
|-------------------------------------|-------|--0--5-7-0-9-7----|----------|
|-------------------------------------|-------|------------------|----------|
   . . . . . . . . . . . . . . . .               .  . . . . .

INTERLUDE/FADE OUT                        5x
|------------------------------------------|
|------------------------------------------|
|------------------------------------------|
|------------------------------------------|
|------------------------------------------|
|--0-0-7-9-0-0-11-9-0-0-7-9-0-0-5-7-0-0-0--|
pm . . . . . . .  . . . . . . . . . . . .
 
Tap to rate this tab
 
# A B C D E F G H I J K L M N O P Q R S T U V W X Y Z