Song name
# A B C D E F G H I J K L M N O P Q R S T U V W X Y Z

Misc Unsigned Bands - Breaking Towers - Extinction tab

Band from lilburn georgia. Check out their myspace:
www.myspace.com/justbreakingsometowers

(a pick is needed)

INTRO1: repeat 4x
|--------------------------------------------------|
|-------------------8-7-5--------------------10-8-7|
|-------5-0-5-8-7-5-------------7-0-7-10-8-7-------|
|-0-5-0-------------------0-7-0--------------------|

INTRO2
|---------------------------------------------------|
|---------------------------------------------------|
|---------------------------------------------------|
|-8-8-8-8-8-8-10-10-10-5-5-5-8-8-8-8-8-8-7-7-7-7-7-7|

|---------------------------------------------------|
|---------------------------------------------------|
|----------------------------------------7//4~------|
|-8-8-8-8-8-8-10-10-10-5-5-5-8-8-8-8-8-8------------|

|---------------------------------------------------|
|---------------------------------------------------|
|---------------------------------------------------|
|-8-8-8-8-8-8-10-10-10-5-5-5-8-8-8-8-8-8-7-7-7-7-7-7|

|---------------------------------------------------|
|---------------------------------------------------|
|---------------------------------------------------|
|-8-8-8-8-8-8-7-7-7-7-7-7-10~-----------------------|

VERSE1: repeat 2x
|------------------------------------------------------|
|------------------------------------------------------|
|-------10\12-12-------8\15-15-------8---8---7---7-8-10|
|-0-0-0----------0-0-0---------8-8-8---8---8---7-------|

|------------------------------------------------------|
|------------------------------------------------------|
|-------10\12-12-------8\15-15-------8---8---7---8p7---|
|-0-0-0----------0-0-0---------8-8-8---8---8---7-----10|

VERSE 2: repeat 2x

|------------------------------------------------------|
|------------------------------------------------------|
|-------10----10-12-12-------10---10-12-12-13-13-13-12-|
|-0-0-0-----0----------0-0-0----0----------------------|

|------------------------------------------------------|
|-10-8-7-8-7-------10-8-7-8-7--------------------------|
|------------10-8~------------10-7~--8-8-8-7-7-7-10----|
|------------------------------------------------------|

|------------------------------------------------------|
|------------------------------------------------------|
|-------10----10-12-12-------10---10-12-12-13-13-13-12-|
|-0-0-0-----0----------0-0-0----0----------------------|

|---------------------------------------------------------|
|---------------------------------------------------------|
|---10---10---10---12---10---10---7---7---7---8---7-------|
|-8----8----8----8----8----8----7---7---7---7---7---7-10~-|

Bridge: repeat 4x
|------------------------------------------------------|
|-h12h3h6h12h3h6h12--h12h3h6h12h3h6h12-----------------|
|------------------------------------------------------|
|--------------------------------------0-0-0-0---------|

Outro: repeat 2x
|--------------------------------------------------------------|
|--------------------------------------------------------------|
|-------------------------------------------------------8-5-7-4|
|-1-1-4-4-4-1-4-5-5-5-5-5-8-7-5-1-1-4-4-4-1-4-5-5-5-5-5--------|

|--------------------------------------------------------------|
|--------------------------------------------------------------|
|--------------------------------------------------------------|
|-1-1-4-4-4-1-4-5-5-5-5-5-8-7-5-1-1-4-4-4-1-4-5-5-55-55-55-55--|

End
|---|
|---|
|---|
|-0-|


Tap to rate this tab
# A B C D E F G H I J K L M N O P Q R S T U V W X Y Z