Song name
# A B C D E F G H I J K L M N O P Q R S T U V W X Y Z

Misc Unsigned Bands - Brothers At Sea - For Being Brave tab

-------------------------------------------------------------------------------
			     For Being Brave - Brothers At Sea
-------------------------------------------------------------------------------
Tabbed by :jvadala
Email: jvadala

Brothers At Sea: http://www.myspace.com/brothersatsea

Tuning: standard

INTRO and VERSE 1:  Riff 1

e|--------------------5-------------4------------4---------------------------|
B|--------5------------------------------------------------------------------|
G|-----2-----2-----2------2------2------2-----2-----2------------------------|
D|--0-----------4-------------2------------2---------------------------------|
A|---------------------------------------------------------------------------|
E|---------------------------------------------------------------------------|


Come again
I couldn’t hear those last words
They sounded thin
Like you were speaking backwards
And after all we’ve said and done
We’re finally seeing

CHORUS: RIFF 2

     

e|---------------------------------------------------------------------------|
B|---------------------------------------------------------------------------|
G|------7----------------------9---------------------------------------------|
D|------7----------7-----------9---------------------------------------------|
A|------5----------7-----------7---------------------------------------------|
E|-----------------5---------------------------------------------------------| 

 So this is what I get For being brave
       this is what you give After all I gave


RIFF 1:

I gave myself
Held nothing back for your sake
We parted ways
With a half-hearted hug and handshake
Our love’s run dry, this can’t go on
We’re finally seeing

RIFF 2:

So this is what I get
For being brave
So this is what you give 
After all I gave
Yeah I can see what you’re doing to me
So this is what I get

BRIDGE:

E                    A     D               E     E               A
Im standing tall, standing tall, standing tall
                  D               E
But I was falling for you 

Tap to rate this tab
# A B C D E F G H I J K L M N O P Q R S T U V W X Y Z