Song name
# A B C D E F G H I J K L M N O P Q R S T U V W X Y Z

Misc Unsigned Bands - Didi Benami - Terrified tab

This song is played with a capo on the eighth fret
G- 320033         Cadd9- 032033   Em7 - 022033     Gsus/#F- 200033

Verse:
Play twice:
e-----------------------------------------|
b---------3--------3--------3---------3---|
g-------0--------0--------0---------0-----|
d-----0--------2--------2---------0-------|
a------------3--------2-------------------|
e---3--------------------------2----------|

Play once:
-------------------------------------|
---------3--------3--------3---------|
-------0--------0--------0-----------|
-----0--------2--------2-------------|
------------3--------2---------------|
---3--------------------------2------|

You by the light
Is the greatest find
In a world
Full of wrong
Your the thing thats right
Finally made it
Through the lonely
To the other side

Chorus:

                  G
You set it again
                        Cadd9
My hearts in motion
           Em7
Every word feels
             Gsus/#F
Like a shooting star
                 G                   Cadd9
Im at the edge of my emotions
                         Em7
Watching the shadows
               Gsus/#F
Burning in the dark
         G       Cadd9
And Im in love
        Em7   Gsus/#F
And Im      terrifed
              G
For the first time
               Cadd9
And the last time
           Em7  Gsus/#F    G  Cadd9   Em7
In my on.....ly               life
   Gsus/#F
Life
Tap to rate this tab
 
# A B C D E F G H I J K L M N O P Q R S T U V W X Y Z