Song name
# A B C D E F G H I J K L M N O P Q R S T U V W X Y Z

Misc Unsigned Bands - Flashback - Titan Subway tab

Flashback
Titan Subway
Guitar Tab
Half Step Tuning,With Drop D - Db Ab Db Gb Bb Eb
Tabbed By Jonathan Mack



This Is From The Video Game
Flashback: The Quest For Identity
Which Was Released For The
Sega Megadrive/Genesis In 1992.
The Song Is On Level Two,
In New Washington.
(When Using The Subway Map)



|-|-----------------------|------------->
|-|-----------------------|------------->
|-|--6-4---6-4---6---6-4-6|--9---8------>
|-|6-----6-----6---6------|6---6---9-6-->
|4|-----------------------|------------->
|-|-----------------------|------------->

|------------------------------|------------->
|------------------------------|------------->
|------------------------------|------------->
|----7-----7-----7---7-----7---|--7-5---7---->
|0-7---4-4---0-7---7---4-7-----|7-----7---7-->
|-----------------------------7|------------->

|---------|-----------------|------->
|---------|-----------------|------->
|---------|4-2---4---4-2----|------->
|--4------|----4---4--------|2-2-4-->
|2-----2--|-----------------|------->
|----4----|-----------------|------->

|---------------------|-----------|
|----------------4-5-6|-----------|  And Repeat As 
|--------6-4---6------|-----------|  Many Times As  
|--3-4-6-----6--------|----4-2-1--|  You Want.  
|4--------------------|--4-2-0----|
|---------------------|4----------|



Tap to rate this tab
# A B C D E F G H I J K L M N O P Q R S T U V W X Y Z