Song name
# A B C D E F G H I J K L M N O P Q R S T U V W X Y Z

Misc Unsigned Bands - Weapon - Sons Of Odin tab

-------------------------------------------------------------------------------
                             Sons of Odin - Weapon
-------------------------------------------------------------------------------
Tabbed by: Victor Baldwin
Email: duncanhills88@hotmail.com

	The way that I've tabbed this song out is just the way that I play it.
	Sorry, but I didn't tab out the solo because I don't know it.

Tuning: CGCFAD

D|----------------------------------------------------------------------------|
A|----------------------------------------------------------------------------|
F|----------------------------------------------------------------------------|
C|----------------------------------------------------------------------------|
G|-5\0---5------6-5----8-6-5--6-5--5--5\0---5------6-5----8-6-5--6-5--5--5----|
C|-5\0--5-8-7~-7---8~-8----------8--8-5\0--5-8-7~-7---8~-8----------8--8-5----|
        *      *      *                    *      *      *
D|-------------------------------------------------------------------------------|
A|-------------------------------------------------------------------------------|
F|-------------------------------------------------------------------------------|
C|-------------------------------------------------------------------------------|
G|----5-------6-5------8-6-5--6-5--5--5----5-------6-5------8-6-5--6-5--5--5-----|
C|-555-8-7-777---8-888-----------8--8-5-555-8-7-777---8-888-----------8--8-5-----|
   ***     ***     ***                  ***     ***     ***
D|---------------------------------------------------------------------------|
A|---------------------------------------------------------------------------|
F|---------------------------------------------------------------------------|
C|-----8-7h8---5-----8-7h8-----------8-7h8---8/10-8-7-8--7-------------------|
G|-0-00-0---000--0-00-0---000-6--6-66-6---666-------------8-10---------------|
C|---------------------------------------------------------------------------|
   * ** *   ***  * ** *   ***    * ** *   ***		          x2
D|---------------------------------------------------------------------------|
A|---------------------------------------------------------------------------|
F|---------------------------------------------------------------------------|
C|-----8-7h8---5-----8-7h8-----------8-7h8------5-3--3-5---------------------|
G|-0-00-0---000--0-00-0---000-6--6-66-6---666-3----5--5----------------------|
C|---------------------------------------------------------------------------|
   * ** *   ***  * ** *   ***    * ** *   ***
D|---------------------------------------------------------------------------|
A|---------------------------------------------------------------------------|
F|---------------------------------------------------------------------------|
C|-----8-7h8---5-----8-7h8-----------8-7h8---8/10-8-7-8--7-------------------|
G|-0-00-0---000--0-00-0---000-6--6-66-6---666-------------8-10---------------|
C|---------------------------------------------------------------------------|
   * ** *   ***  * ** *   ***    * ** *   ***
D|---------------------------------------------------------------------------|
A|---------------------------------------------------------------------------|
F|---------------------------------------------------------------------------|
C|-----8-7h8---5-----8-7h8-----------8-7h8------5-3--3-----------------------|
G|-0-00-0---000--0-00-0---000-6--6-66-6---666-3----5--5----------------------|
C|---------------------------------------------------------------------------|
   * ** *   ***  * ** *   ***    * ** *   ***
D|-----------------------10---------------------------------------------------|
A|-8-6-8-10-8-10-11-10h11--11-8-6-6/8-10-11-10-8-6-6/8-8-6-6/8--6-------------|
F|----------------------------------------------------------------------------|x3
C|----------------------------------------------------------------------------|
G|----------------------------------------------------------------------------|
C|----------------------------------------------------------------------------|

D|-----------------------10---------------------------------------------------|
A|-8-6-8-10-8-10-11-10h11--11-8-6-6/8-10-11-10-8-6-6/8-8-6-6/8-8-6-6/8--------|
F|----------------------------------------------------------------------------|
C|----------------------------------------------------------------------------|
G|----------------------------------------------------------------------------|
C|----------------------------------------------------------------------------|

D|----------------------------------------------------------------------------|
A|----------------------------------------------------------------------------|
F|------------------10-7-10-7-10-10/12--12-14-15-14-12-14-12-14-15-14-12-14---|
C|-12-12-12-10-8-5------------------------------------------------------------|
G|----------------------------------------------------------------------------|
C|----------------------------------------------------------------------------|

D|---------------------|
A|---------------------|
F|-17-15-14-15-14-12---|
C|---------------------|
G|---------------------|
C|---------------------|

D|------------------------------------------|  x3
A|------------------------------------------|
F|------------------------------------------|
C|-8-7-8-10-10/12-10-8-10-7-7-8-10-8-7------|
G|------------------------------------------|
C|------------------------------------------|

D|-------------------------------------------------|
A|-------------------------------------------------|
F|-------------------------------------------------|
C|-8-7-8-8/10-8-10-10/12-10-12-12/15-12-15-15/17---|
G|-------------------------------------------------|
C|-------------------------------------------------|

D|---------------------------------------------------------------------------|
A|---------------------------------------------------------------------------|
F|---------------------------------------------------------------------------|
C|-----8-7h8---5-----8-7h8-----------8-7h8---8/10-8-7-8--7-------------------|
G|-0-00-0---000--0-00-0---000-6--6-66-6---666-------------8-10---------------|
C|---------------------------------------------------------------------------|
   * ** *   ***  * ** *   ***    * ** *   ***
D|---------------------------------------------------------------------------|
A|---------------------------------------------------------------------------|
F|---------------------------------------------------------------------------|
C|-----8-7h8---5-----8-7h8-----------8-7h8------5-3--3-5---------------------|
G|-0-00-0---000--0-00-0---000-6--6-66-6---666-3----5--5----------------------|
C|---------------------------------------------------------------------------|
   * ** *   ***  * ** *   ***    * ** *   ***
D|---------------------------------------------------------------------------|
A|---------------------------------------------------------------------------|
F|---------------------------------------------------------------------------|
C|-----8-7h8---5-----8-7h8-----------8-7h8---8/10-8-7-8--7-------------------|
G|-0-00-0---000--0-00-0---000-6--6-66-6---666-------------8-10---------------|
C|---------------------------------------------------------------------------|
   * ** *   ***  * ** *   ***    * ** *   ***
D|------------------------------------------------------------------------------|
A|------------------------------------------------------------------------------|
F|------------------------------------------------------------------------------|
C|-----8-7h8---5-----8-7h8-----------8-7h8------5-3--3-5~-----------------------|
G|-0-00-0---000--0-00-0---000-6--6-66-6---666-3----5--5-------------------------|
C|------------------------------------------------------------------------------|
   * ** *   ***  * ** *   ***    * ** *   ***          +

D|-------------------------------------------|   x2 with tremelo
A|-------------------------------------------|        then
F|-------------------------------------------|  x2 without tremelo
C|---------7/8\7--------------7/8\7----------|
G|-10-8-10-------10-8--10-6-10-----10-8------|
C|-------------------------------------------|

D|-----------------------------------------------------------------|
A|-----------------------------------------------------------------|
F|---------7/9\7---------------7/9\7---------------7/9\7-----------|  tremelo
C|-10-9-10-------10-9--10-7-10-------10-9--10-9-10-------10-7------|
G|-----------------------------------------------------------------|
C|-----------------------------------------------------------------|

D|--------------------|
A|--------------------|
F|----7----7----------|
C|-10---10---9~-------|
G|--------------------|
C|--------------------|

D|-----------------------------------------------------------------|
A|-----------------------------------------------------------------|
F|-----------------------------------------------------------------|
C|-----------------------------------------------------------------|
G|-5--5--5h8p7p5-----------------5--5--5---------------------------|
C|--00-00-------5-555-555-555555--00-00-5/7-777777-7/8-888888------|
    ** **         *** *** ******  ** **     ******     ******
D|--------------------------------------------------------|
A|--------------------------------------------------------|
F|--------------------------------------------------------|
C|--------------------------------------------------------|
G|-5--5--5h8p7p5-----------------5--5--5--7-7--8-8--------|
C|--00-00-------5-555-555-555555--00-00---7-7--8-8--------|
    ** **         *** *** ******  ** **
D|-----------------------------------------------------------------|
A|-----------------------------------------------------------------|
F|-----------------------------------------------------------------| x3
C|-----------------------------------------------------------------|
G|-5--5--5h8p7p5-----------------5--5--5---------------------------|
C|--00-00-------5-555-555-555555--00-00-5/7-777777-7/8-888888------|
    ** **         *** *** ******  ** **     ******     ******
D|--------------------------------------------------------|
A|--------------------------------------------------------|
F|--------------------------------------------------------|
C|--------------------------------------------------------|
G|-5--5--5h8p7p5-----------------5--5--5--7-7--8-8--------|
C|--00-00-------5-555-555-555555--00-00---7-7--8-8--------|
    ** **         *** *** ******  ** **
D|---------------------------------------|
A|---------------------------------------|
F|---------------------------------------| x2
C|---------------------------------------| (Harmonics on selected notes the 2nd
G|-0--0------1-0----3-1-0--1-0---0-------|  time through.)
C|-0-0-3-2~-2---3~-3----------3---3------|
     *   +  *   +  *
D|---------------------------------------|
A|---------------------------------------| x2   (DIE! DIE! DIE! DIE! DIE! DIE!)
F|---------------------------------------|      (DIE! DIE! DIE! DIE! DIE! DIE!)
C|---------------------------------------|      (DIE! DIE! DIIIIIEEEEE!!!!!!!!)
G|-0-----0---------1-0-------3-1-0--1-0--|
C|-0-0000-3-2~-2222---3~-3333----------3-|
     ****      ****      ****
D|--------------------------------------------------------------|
A|--------------------------------------------------------------|
F|--------------------------------------------------------------|
C|--------------------------------------------------------------|
G|-0-----8-7h8---5----8-7h8----------8-7h8---8/10-8-7-8-7-------|
C|-0-0-00-0---000-0-00-0---000-8-8-88-8---888------------10-12--|
     * ** *   *** * ** *   ***   * ** *   ***
D|------------------------------------------------------|
A|------------------------------------------------------|
F|------------------------------------------------------|
C|------------------------------------------------------|
G|-----8-7h8---5----8-7h8----------8-7h8-----5-3--3--5--|
C|-0-00-0---000-0-00-0---000-8-8-88-8---888-5---7--7----|
   * ** *   *** * ** *   ***   * ** *   ***
D|--------------------------------------------------------------|
A|--------------------------------------------------------------|
F|--------------------------------------------------------------|
C|--------------------------------------------------------------|
G|-----8-7h8---5----8-7h8----------8-7h8---8/10-8-7-8-7---------|
C|-0-00-0---000-0-00-0---000-8-8-88-8---888------------10-12----|
   * ** *   *** * ** *   ***   * ** *   ***
D|---------------------------------------------------------------|
A|---------------------------------------------------------------|
F|---------------------------------------------------------------|
C|---------------------------------------------------------------|
G|-----8-7h8---5----8-7h8----------8-7h8-----5-3--3--5--5-3-5----|
C|-0-00-0---000-0-00-0---000-8-8-88-8---888-5---7--7-------------|
   * ** *   *** * ** *   ***   * ** *   ***
D|-----------------------10---------------------------------------------------|
A|-8-6-8-10-8-10-11-10h11--11-8-6-6/8-10-11-10-8-6-6/8-8-6-6/8--6-------------|
F|----------------------------------------------------------------------------|x3
C|----------------------------------------------------------------------------|
G|----------------------------------------------------------------------------|
C|----------------------------------------------------------------------------|

D|-----------------------10---------------------------------------------------|
A|-8-6-8-10-8-10-11-10h11--11-8-6-6/8-10-11-10-8-6-6/8-8-6-6/8-8-6-6/8--------|
F|----------------------------------------------------------------------------|
C|----------------------------------------------------------------------------|
G|----------------------------------------------------------------------------|
C|----------------------------------------------------------------------------|

D|----------------------------------------------------------------------------|
A|----------------------------------------------------------------------------|
F|------------------10-7-10-7-10-10/12--12-14-15-14-12-14-12-14-15-14-12-14---|
C|-12-12-12-10-8-5------------------------------------------------------------|
G|----------------------------------------------------------------------------|
C|----------------------------------------------------------------------------|

D|---------------------|
A|---------------------|
F|-17-15-14-15-14-12---|
C|---------------------|
G|---------------------|
C|---------------------|

D|------------------------------------------|  x3
A|------------------------------------------|
F|------------------------------------------|
C|-8-7-8-10-10/12-10-8-10-7-7-8-10-8-7------|
G|------------------------------------------|
C|------------------------------------------|

D|-------------------------------------------------|
A|-------------------------------------------------|
F|-8-7-8-8/10-8-10-10/12-10-12-12/14-12-14-14/15---|
C|-------------------------------------------------|
G|-------------------------------------------------|
C|-------------------------------------------------|

D|---------------------------13------------------------------------------------|O
A|-11-10-11-13-11-13-15-13h15--15-11-10-10/11-13-15-13-11-10-10/11-11-10-10/11-|U
F|-----------------------------------------------------------------------------|T
C|-----------------------------------------------------------------------------|R
G|-----------------------------------------------------------------------------|O
C|-----------------------------------------------------------------------------|

************************************

| /   slide up
| \   slide down
| h   hammer-on
| p   pull-off
| ~   vibrato
| +   harmonic
| x   Mute note
| *   Palm mute
| b   Bend
| pb  Pre-bend
| br  Bend release
| pbr Pre-bend release
| brb Bend release bend

************************************
Tap to rate this tab
# A B C D E F G H I J K L M N O P Q R S T U V W X Y Z