Song name
# A B C D E F G H I J K L M N O P Q R S T U V W X Y Z

Misc Unsigned Bands - Earl Hatch - Furioso And Valse tab

     |--3--|  |--3--|  |--3--|  |--3--|
     E  E  E  E  E  E  E  E  E  E  E  E
E||--------------------------------------|
B||--------------------------------------|
G||--7--7--7--7--7--7--7--7--7--7--7--7--|
D||--------------------------------------|
A||--------------------------------------|
D||--------------------------------------|


  |---3--|  |---3--|  |---3--|  |---3--|
  E  E   E  E  E   E  E  E   E  E  E   E
------------------------------------------|
------------------------------------------|
--7--9--10--7--9--10--7--9--10--7--9--10--|
------------------------------------------|
------------------------------------------|
------------------------------------------|


  |--3--|  |--3--|  |--3--|  |--3--|
  E  E  E  E  E  E  E  E  E  E  E  E
--------------------------------------|
--------------------------------------|
--7--7--7--7--7--7--7--7--7--7--7--7--|
--------------------------------------|
--------------------------------------|
--------------------------------------|


  |---3---|  |---3--|   |---3--|  |--3--|
  E   E   E  E  E   E   E   E  E  E  E  E
-------------------------------------------|
-------------------------------------------|
--7----------------------------------------|
-----11--10--9--8--------------------------|
-------------------12--11--10--9--8--7--6--|
-------------------------------------------|


   |---3---|   |---3---|   |---3---|   |---3-
   E   E   E   E   E   E   E   E   E   E   E
---------------------------------------------|
---------------------------------------------|
---------------------------------------------|
---------------------------------------------|
---------------------------------------------|
--12--12--12--12--12--12--12--12--12--12--12-|


   |---3---|   |---3---|   |---3---|   |---3-
   E   E   E   E   E   E   E   E   E   E   E
---------------------------------------------|
---------------------------------------------|
---------------------------------------------|
---------------------------------------------|
---------------------------------------------|
--12--14--15--12--14--15--12--14--15--12--14-|


   |---3---|   |---3---|   |---3---|   |---3-
   E   E   E   E   E   E   E   E   E   E   E
---------------------------------------------|
---------------------------------------------|
---------------------------------------------|
---------------------------------------------|
---------------------------------------------|
--12--12--12--12--12--12--12--12--12--12--12-|


   |--3--|  |---3--|   |---3--|  |---3---|
   E  E  E  E  E   E   E   E  E  E   E   E
--------------------------------------------|
--------------------------------------------|
--------------------------------------------|
------------------------------8--9--10--11--|
------6--7--8--9--10--11--12----------------|
--12----------------------------------------|


  |--3--|  |--3--|  |--3--|  |--3--|
  E  E  E  E  E  E  E  E  E  E  E  E
--------------------------------------|
--------------------------------------|
--7--7--7--7--7--7--7--7--7--7--7--7--|
--------------------------------------|
--------------------------------------|
--------------------------------------|


  |---3--|  |---3--|  |---3--|  |---3--|
  E  E   E  E  E   E  E  E   E  E  E   E
------------------------------------------|
------------------------------------------|
--7--9--10--7--9--10--7--9--10--7--9--10--|
------------------------------------------|
------------------------------------------|
------------------------------------------|


  |--3--|  |--3--|  |--3--|  |--3--|
  E  E  E  E  E  E  E  E  E  E  E  E
--------------------------------------|
--------------------------------------|
--7--7--7--7--7--7--7--7--7--7--7--7--|
--------------------------------------|
--------------------------------------|
--------------------------------------|


  |---3--|  |---3--|   |---3--|   |--3--|
  E  E   E  E   E  E   E  E   E   E  E  E
----------------------------------------7--|
-------------------------------------9-----|
--7------------------------------10--------|
-----9--------------------9--12------------|
--------11--8------8--11-------------------|
---------------10--------------------------|


  Q    E   E  Q    Q
--5---------------------|
------------------------|
--------------7---------|
-------7p--3------------|
------------------------|
------------------------|


  Q    E   E  Q    Q
------------------------|
--------------3---------|
-------3p--0------------|
------------------------|
--1---------------------|
------------------------|


  Q    E   E  Q    Q
------------------------|
--------------3---------|
------------------------|
-------5p--2------------|
------------------------|
--5---------------------|


  Q    E   E  Q    Q
------------------------|
--------------2---------|
------------------------|
-------7p--3------------|
--0---------------------|
------------------------|


       |--3--|  |--3--|  |--3--|
  Q    E  E  E  E  E  E  E  E  E
----------------------------------|
----------------------------------|
-------7--7--7--7--7--7--7--7--7--|
--0-------------------------------|
--0-------------------------------|
--0-------------------------------|


  |---3--|  |---3--|  |---3--|  |---3--|
  E  E   E  E  E   E  E  E   E  E  E   E
------------------------------------------|
------------------------------------------|
--7--9--10--7--9--10--7--9--10--7--9--10--|
------------------------------------------|
------------------------------------------|
------------------------------------------|


  |--3--|  |--3--|   |--3--|  |--3--|
  E  E  E  E  E  E   E  E  E  E  E  E
---------------------------------------|
---------------------------------------|
--7--7--7--6--7--7------7--7-----7--7--|
--------------------10--------9--------|
---------------------------------------|
---------------------------------------|


  |--3--|  |--3--|  |--3--|  |--3--|
  E  E  E  E  E  E  E  E  E  E  E  E
--------------------------------------|
--------------------------------------|
-----7--7-----7--7-----7--7-----7--7--|
--8--------7--------6--------7--------|
--------------------------------------|
--------------------------------------|


  |--3--|  |--3--|  |--3--|  |--3--|
  E  E  E  E  E  E  E  E  E  E  E  E
--------------------------------------|
--------------------------------------|
-----7--7--7--7--7--7--7--7--7--7--7--|
--0-----------------------------------|
--------------------------------------|
--------------------------------------|


  |---3--|  |---3--|  |---3--|  |---3--|
  E  E   E  E  E   E  E  E   E  E  E   E
------------------------------------------|
------------------------------------------|
--7--9--10--7--9--10--7--9--10--7--9--10--|
------------------------------------------|
------------------------------------------|
------------------------------------------|


  |--3--|  |--3--|   |--3--|  |--3--|
  E  E  E  E  E  E   E  E  E  E  E  E
---------------------------------------|
---------------------------------------|
--7--7--7--6--7--7------7--7-----7--7--|
--------------------10--------9--------|
---------------------------------------|
---------------------------------------|


  |--3--|  |--3--|  |--3--|  |--3--|
  E  E  E  E  E  E  E  E  E  E  E  E
--------------------------------------|
--------------------------------------|
-----7--7-----7--7-----7--7-----7--7--|
--8--------7--------6--------7--------|
--------------------------------------|
--------------------------------------|


  |--3--|  |--3--|  |--3--|  |--3--|
  E  E  E  E  E  E  E  E  E  E  E  E
--------------------------------------|
-----8--8--8--8--8--8--8--8--8--8--8--|
--------------------------------------|
--8-----------------------------------|
--------------------------------------|
--------------------------------------|


  |---3---|  |---3---|  |---3---|  |---3---|
  E   E   E  E   E   E  E   E   E  E   E   E
---------------------------------------------|
--8--10--11--8--10--11--8--10--11--8--10--11-|
---------------------------------------------|
---------------------------------------------|
---------------------------------------------|
---------------------------------------------|


  |--3--|  |--3--|  |--3--|  |--3--|
  E  E  E  E  E  E  E  E  E  E  E  E
--------------------------------------|
--8--8--8--7--8--8--6--8--8-----8--8--|
-----------------------------9--------|
--------------------------------------|
--------------------------------------|
--------------------------------------|


  |--3--|  |--3--|  |--3--|  |--3--|
  E  E  E  E  E  E  E  E  E  E  E  E
--------------------------------------|
-----8--8-----8--8-----8--8-----8--8--|
--8--------7--------6--------7--------|
--------------------------------------|
--------------------------------------|
--------------------------------------|


  |--3--|  |--3--|  |--3--|  |--3--|
  E  E  E  E  E  E  E  E  E  E  E  E
--------------------------------------|
-----8--8--8--8--8--8--8--8--8--8--8--|
--0-----------------------------------|
--------------------------------------|
--------------------------------------|
--------------------------------------|


  |---3---|  |---3---|  |---3---|  |---3---|
  E   E   E  E   E   E  E   E   E  E   E   E
---------------------------------------------|
--8--10--11--8--10--11--8--10--11--8--10--11-|
---------------------------------------------|
---------------------------------------------|
---------------------------------------------|
---------------------------------------------|


  |--3--|  |--3--|  |--3--|  |--3--|
  E  E  E  E  E  E  E  E  E  E  E  E
--------------------------------------|
--8--8--8--7--8--8--6--8--8-----8--8--|
-----------------------------9--------|
--------------------------------------|
--------------------------------------|
--------------------------------------|


  |--3--|  |--3--|  |--3--|  |--3--|
  E  E  E  E  E  E  E  E  E  E  E  E
--------------------------------------|
-----8--8-----8--8-----8--8-----8--8--|
--8--------7--------6--------7--------|
--------------------------------------|
--------------------------------------|
--------------------------------------|


  |---3--|   |---3---|  |---3--|   |---3---|
  E  E   E   E   E   E  E  E   E   E   E   E
---------------------------------------------|
--5--8--10--10--10--10-----8--10--10--10--10-|
------------------------8--------------------|
---------------------------------------------|
---------------------------------------------|
---------------------------------------------|


  |---3--|   |---3---|  |---3--|   |---3---|
  E  E   E   E   E   E  E  E   E   E   E   E
---------------------------------------------|
--5--8--10--10--10--10-----8--10--10--10--10-|
------------------------7--------------------|
---------------------------------------------|
---------------------------------------------|
---------------------------------------------|


  |---3--|   |---3---|   |---3---|   |---3---
  E  E   E   E   E   E   E   E   E   E   E
----------------------------------------------|
-----8--10--10--10--10--10--10--10--10--10--1-|
--6-------------------------------------------|
----------------------------------------------|
----------------------------------------------|
----------------------------------------------|


   |---3--|   |---3--|   |---3--|   |---3--|
   E  E   E   E  E   E   E  E   E   E  E   E
---------------------------------------------|
--10--9--11--10--9--11--10--9--11--10--9--11-|
---------------------------------------------|
---------------------------------------------|
---------------------------------------------|
---------------------------------------------|


  |---3--|   |---3---|  |---3--|   |---3---|
  E  E   E   E   E   E  E  E   E   E   E   E
---------------------------------------------|
--5--8--10--10--10--10-----8--10--10--10--10-|
------------------------8--------------------|
---------------------------------------------|
---------------------------------------------|
---------------------------------------------|


  |---3--|   |---3---|  |---3--|   |---3---|
  E  E   E   E   E   E  E  E   E   E   E   E
---------------------------------------------|
--5--8--10--10--10--10-----8--10--10--10--10-|
------------------------7--------------------|
---------------------------------------------|
---------------------------------------------|
---------------------------------------------|


  |---3--|   |---3---|   |---3---|   |---3---
  E  E   E   E   E   E   E   E   E   E   E
----------------------------------------------|
-----8--10--10--10--10--10--10--10--10--10--1-|
--6-------------------------------------------|
----------------------------------------------|
----------------------------------------------|
----------------------------------------------|


   |---3--|   |---3--|  |---3---|  |--3--|
   E  E   E   E  E   E  E   E   E  E  E  E
--------------------------------------------|
--10--9--11--10--9--11--8-------------------|
---------------------------11--10--9--8--7--|
--------------------------------------------|
--------------------------------------------|
--------------------------------------------|


  |--3--|  |--3--|  |--3--|  |--3--|
  E  E  E  E  E  E  E  E  E  E  E  E
--------------------------------------|
--------------------------------------|
--7--7--7--7--7--7--7--7--7--7--7--7--|
--------------------------------------|
--------------------------------------|
--------------------------------------|


  |---3--|  |---3--|  |---3--|  |---3--|
  E  E   E  E  E   E  E  E   E  E  E   E
------------------------------------------|
------------------------------------------|
--7--9--10--7--9--10--7--9--10--7--9--10--|
------------------------------------------|
------------------------------------------|
------------------------------------------|


  |--3--|  |--3--|   |--3--|  |--3--|
  E  E  E  E  E  E   E  E  E  E  E  E
---------------------------------------|
---------------------------------------|
--7--7--7--6--7--7------7--7-----7--7--|
--------------------10--------9--------|
---------------------------------------|
---------------------------------------|


  |--3--|  |--3--|  |--3--|  |--3--|
  E  E  E  E  E  E  E  E  E  E  E  E
--------------------------------------|
--------------------------------------|
-----7--7-----7--7-----7--7-----7--7--|
--8--------7--------6--------7--------|
--------------------------------------|
--------------------------------------|


  |--3--|  |--3--|  |--3--|  |--3--|
  E  E  E  E  E  E  E  E  E  E  E  E
--------------------------------------|
--------------------------------------|
-----7--7--7--7--7--7--7--7--7--7--7--|
--0-----------------------------------|
--------------------------------------|
--------------------------------------|


  |---3--|  |---3--|  |---3--|  |---3--|
  E  E   E  E  E   E  E  E   E  E  E   E
------------------------------------------|
------------------------------------------|
--7--9--10--7--9--10--7--9--10--7--9--10--|
------------------------------------------|
------------------------------------------|
------------------------------------------|


  |--3--|  |--3--|   |--3--|  |--3--|
  E  E  E  E  E  E   E  E  E  E  E  E
---------------------------------------|
---------------------------------------|
--7--7--7--6--7--7------7--7-----7--7--|
--------------------10--------9--------|
---------------------------------------|
---------------------------------------|


  |--3--|  |--3--|  |--3--|  |--3--|
  E  E  E  E  E  E  E  E  E  E  E  E
--------------------------------------|
--------------------------------------|
-----7--7-----7--7-----7--7-----7--7--|
--8--------7--------6--------7--------|
--------------------------------------|
--------------------------------------|


  |--3--|  |--3--|  |--3--|  |--3--|
  E  E  E  E  E  E  E  E  E  E  E  E
--------------------------------------|
-----8--8--8--8--8--8--8--8--8--8--8--|
--------------------------------------|
--8-----------------------------------|
--------------------------------------|
--------------------------------------|


  |---3---|  |---3---|  |---3---|  |---3---|
  E   E   E  E   E   E  E   E   E  E   E   E
---------------------------------------------|
--8--10--11--8--10--11--8--10--11--8--10--11-|
---------------------------------------------|
---------------------------------------------|
---------------------------------------------|
---------------------------------------------|


  |--3--|  |--3--|  |--3--|  |--3--|
  E  E  E  E  E  E  E  E  E  E  E  E
--------------------------------------|
--8--8--8--7--8--8--6--8--8-----8--8--|
-----------------------------9--------|
--------------------------------------|
--------------------------------------|
--------------------------------------|


  |--3--|  |--3--|  |--3--|  |--3--|
  E  E  E  E  E  E  E  E  E  E  E  E
--------------------------------------|
-----8--8-----8--8-----8--8-----8--8--|
--8--------7--------6--------7--------|
--------------------------------------|
--------------------------------------|
--------------------------------------|


  |--3--|  |--3--|  |--3--|  |--3--|
  E  E  E  E  E  E  E  E  E  E  E  E
--------------------------------------|
-----8--8--8--8--8--8--8--8--8--8--8--|
--0-----------------------------------|
--------------------------------------|
--------------------------------------|
--------------------------------------|


  |---3---|  |---3---|  |---3---|  |---3---|
  E   E   E  E   E   E  E   E   E  E   E   E
---------------------------------------------|
--8--10--11--8--10--11--8--10--11--8--10--11-|
---------------------------------------------|
---------------------------------------------|
---------------------------------------------|
---------------------------------------------|


  |--3--|  |--3--|  |--3--|  |--3--|
  E  E  E  E  E  E  E  E  E  E  E  E
--------------------------------------|
--8--8--8--7--8--8--6--8--8-----8--8--|
-----------------------------9--------|
--------------------------------------|
--------------------------------------|
--------------------------------------|


  |--3--|  |--3--|  |--3--|  |--3--|
  E  E  E  E  E  E  E  E  E  E  E  E
--------------------------------------|
-----8--8-----8--8-----8--8-----8--8--|
--8--------7--------6--------7--------|
--------------------------------------|
--------------------------------------|
--------------------------------------|


  |---3---|   |---3--|   |--3--|   |---3---|
  E   E   E   E  E   E   E  E  E   E   E   E
--------------------13--10--9--8-------------|
--9--12--11--10--9----------------12--11--10-|
---------------------------------------------|
---------------------------------------------|
---------------------------------------------|
---------------------------------------------|


  |--3--|  |--3--|   |--3--|  |--3--|
  E  E  E  E  E  E   E  E  E  E  E  E
---------------------------------------|
--9--9--9--9--9--9------9--9-----9--9--|
--------------------10--------7--------|
---------------------------------------|
---------------------------------------|
---------------------------------------|


   |---3---|   |---3---|   |---3--|   |---3--
   E   E   E   E   E   E   E   E  E   E   E
----------------------13--12--10--9----------|
--10--13--12--11--10-----------------13--12--|
---------------------------------------------|
---------------------------------------------|
---------------------------------------------|
---------------------------------------------|


   |---3---|   |---3---|   |---3---|  |---3--
   E   E   E   E   E   E   E   E   E  E   E
---------------------------------------------|
--10--10--10--10--10--10------10--10-----10--|
--------------------------10----------7------|
---------------------------------------------|
---------------------------------------------|
---------------------------------------------|


   |---3---|   |---3---|   |---3---|   |---3-
   E   E   E   E   E   E   E   E   E   E   E
----------------------13--12--11-------------|
--11--15--14--13--12--------------15--14--13-|
---------------------------------------------|
---------------------------------------------|
---------------------------------------------|
---------------------------------------------|


   |---3---|   |---3---|   |---3---|   |---3-
   E   E   E   E   E   E   E   E   E   E   E
---------------------------------------------|
--11--11--11--11--11--11------11--11------11-|
--------------------------13----------10-----|
---------------------------------------------|
---------------------------------------------|
---------------------------------------------|


   |---3---|   |---3---|   |---3---|   |---3-
   E   E   E   E   E   E   E   E   E   E   E
------10--10--10--10--10--10--10--10--10--10-|
--10-----------------------------------------|
---------------------------------------------|
---------------------------------------------|
---------------------------------------------|
---------------------------------------------|


   |---3---|   |---3---|   |---3---|   |---3-
   E   E   E   E   E   E   E   E   E   E   E
--10--12--13--10--12--13--10--12--13--10--12-|
---------------------------------------------|
---------------------------------------------|
---------------------------------------------|
---------------------------------------------|
---------------------------------------------|


   |---3---|   |---3---|   |---3---|   |---3-
   E   E   E   E   E   E   E   E   E   E   E
--10--10--10--10--10--10--10--10--10--10--10-|
---------------------------------------------|
---------------------------------------------|
---------------------------------------------|
---------------------------------------------|
---------------------------------------------|


   |---3---|   |---3---|   |---3---|   |---3-
   E   E   E   E   E   E   E   E   E   E   E
--10-----------------------------------------|
------14--13--12--11-------------------------|
----------------------14--13--12--11---------|
--------------------------------------15--14-|
---------------------------------------------|
---------------------------------------------|


   |---3---|   |---3---|   |---3---|   |---3-
   E   E   E   E   E   E   E   E   E   E   E
---------------------------------------------|
---------------------------------------------|
---------------------------------------------|
--12--12--12--12--12--12--12--12--12--12--12-|
---------------------------------------------|
---------------------------------------------|


   |---3---|   |---3---|   |---3---|   |---3-
   E   E   E   E   E   E   E   E   E   E   E
---------------------------------------------|
---------------------------------------------|
---------------------------------------------|
--12--14--15--12--14--15--12--14--15--12--14-|
---------------------------------------------|
---------------------------------------------|


   |---3---|   |---3---|   |---3---|   |---3-
   E   E   E   E   E   E   E   E   E   E   E
---------------------------------------------|
---------------------------------------------|
---------------------------------------------|
--12--12--12--12--12--12--12--12--12--12--12-|
---------------------------------------------|
---------------------------------------------|


   |---3---|   |---3---|   |---3---|   |---3-
   E   E   E   E   E   E   E   E   E   E   E
---------------------------------------------|
----------------------------------11--12--13-|
------------------11--12--13--14-------------|
--12--13--14--15-----------------------------|
---------------------------------------------|
---------------------------------------------|


   |---3---|   |---3---|   |---3---|   |---3-
   E   E   E   E   E   E   E   E   E   E   E
--10--10--10--10--10--10--10--10--10--10--10-|
---------------------------------------------|
---------------------------------------------|
---------------------------------------------|
---------------------------------------------|
---------------------------------------------|


   |---3---|   |---3---|   |---3---|   |---3-
   E   E   E   E   E   E   E   E   E   E   E
--10--12--13--10--12--13--10--12--13--10--12-|
---------------------------------------------|
---------------------------------------------|
---------------------------------------------|
---------------------------------------------|
---------------------------------------------|


   |---3---|   |---3---|   |---3---|   |---3-
   E   E   E   E   E   E   E   E   E   E   E
--10--10--10--10--10--10--10--10--10--10--10-|
---------------------------------------------|
---------------------------------------------|
---------------------------------------------|
---------------------------------------------|
---------------------------------------------|


   |---3---|   |---3---|   |---3---|   |---3-
   E   E   E   E   E   E   E   E   E   E   E
--10-----------------------------------------|
------12----------------------------------21-|
----------13--10------------------19--22-----|
------------------10------18--21-------------|
----------------------20---------------------|
---------------------------------------------|


   Q     E    E   Q    Q
--17------------------------|
-----------------15---------|
--------14p--10-------------|
----------------------------|
----------------------------|
----------------------------|


   Q     E    E   Q    Q
----------------------------|
-----------------15---------|
--------15p--12-------------|
----------------------------|
--13------------------------|
----------------------------|


  Q     E    E   Q    Q
---------------------------|
----------------15---------|
--0------------------------|
-------17p--14-------------|
---------------------------|
---------------------------|


   Q     E    E  Q    Q
-----------------9---------|
---------------------------|
--------14p--10------------|
---------------------------|
--12-----------------------|
---------------------------|


  W
-------------------||
-------------------||
-------------------||
--0----------------||
--0----------------||
--0----------------||
Tap to rate this tab
# A B C D E F G H I J K L M N O P Q R S T U V W X Y Z