Song name
# A B C D E F G H I J K L M N O P Q R S T U V W X Y Z

Misc Unsigned Bands - Keai - Untitled As Of Yet tab

-------------------------------------------------------------------------------
			     UNTITLED AS OF YET - keAi
-------------------------------------------------------------------------------
Tabbed by: Lily
Email: lilyandfrodo@hotmail.com

Tuning: Standard,

Order:
     Intro
     Chorus
     Verse
     Chorus
     Verse
     Solo
     Chorus
     Verse
     Outro

This bit is the intro/verse - you're playing the rhythm guitar part so the intro and 
for you are the same. It's all 6/8. The first time round this bit repeats 4 times then go 
chorus.


E|---------------------------------------------------------------------------|
A|--8-----8-----8-----6-----4-----4-----3-----3------------------------------|
D|---------------------------------------------------------------------------|
G|---------------------------------------------------------------------------|
B|----9-9---9-9---9-9---8-8---6-6---6-6---5-5---5-5--------------------------|
e|---------------------------------------------------------------------------|

Chorus: - Still not to hard. It's the same chords for the solo but a different strumming 
For each chorus this repeats twice, then at the end of the second repeat you go 
into the verse.

e|--4-4----------------------------------------------------------------------|
B|--x-x----------------------8-8--4-4-4-4-4-4-8-8-8-8-8-8--------------------|
G|--x-x-(two beat rest here)-x-x--x-x-x-x-x-x-x-x-x-x-x-x--------------------|
D|--5-5----------------------x-x--x-x-x-x-x-x-x-x-x-x-x-x--------------------|
A|--------------------------10-10-6-6-6-6-6-6-9-9-9-9-9-9--------------------|
E|---------------------------------------------------------------------------|
So, for the solo part just use the same chords as the ones above that were for the 
and strum all of them 6 Times(1,2,3,4,5,6).

Outro: The picking gets slower, then at the end strum the chord gently after letting the 
notes ring.

e|---------------------------------------------------------------------------|
B|--8-----8-----8-----8---------8--------------------------------------------|
G|------------------------------x--------------------------------------------|
D|------------------------------x--------------------------------------------|
A|---9-9---9-9---9--9---9-9-----9--------------------------------------------|
E|---------------------------------------------------------------------------|

************************************

| /   slide up
| \   slide down
| h   hammer-on
| p   pull-off
| ~   vibrato
| +   harmonic
| x   Mute note
| b   Bend
| pb  Pre-bend
| br  Bend release
| pbr Pre-bend release
| brb Bend release bend

************************************
Tap to rate this tab
# A B C D E F G H I J K L M N O P Q R S T U V W X Y Z