Song name
# A B C D E F G H I J K L M N O P Q R S T U V W X Y Z

Misc Unsigned Bands - Brood - Forever Down tab

-------------------------------------------------------------------------------
			   Forever Down - Brood
-------------------------------------------------------------------------------
Tabbed by: metalmonkey147
Email:

Tuning: Drop C

|--------------------------------------------------------------------|
|--------------------------------------------------------------------|
|--------------------------------------------------------------------|
|-0---0---------------------------0---0------------------------------|
|-0---0---------------------------0---0------------------------------|
|-0---0-3-0-0-5-0-0-6-0-0-6-5-3-5-0---0-3-0-0-5-0-0-6-0-0-6-5-5b~----|
                                                              *

|--------------------------------------------------------------------|
|--------------------------------------------------------------------|
|--------------------------------------------------------------------|
|-0---0---------------------------6-----5-----3---5-----3-----1------|
|-0---0---------------------------6-0-0-5-0-0-3-0-5-0-0-3-0-0-1------|
|-0---0-3-0-0-5-0-0-6-0-0-6-5-3-5-6-0-0-5-0-0-3-0-5-0-0-3-0-0-1------|
                                    . .   . .   .   . .   . .

|--------------------------------------------------------------------|
|--------------------------------------------------------------------|
|--------------------------------------------------------------------|
|-0---0---------------------------0---0------------------------------|
|-0---0---------------------------0---0------------------------------|
|-0---0-3-0-0-5-0-0-6-0-0-6-5-3-5-0---0-3-0-0-5-0-0-6-0-0-6-5-5b~----|
                                                              *

|--------------------------------------------------------------------|
|--------------------------------------------------------------------|
|--------------------------------------------------------------------|
|-0---0---------------------------6-----5-----3---8-----6-----5------|
|-0---0---------------------------6-0-0-5-0-0-3-0-8-0-0-6-0-0-5-0----|
|-0---0-3-0-0-5-0-0-6-0-0-6-5-3-5-6-0-0-5-0-0-3-0-8-0-0-6-0-0-5-0----|
                                    . .   . .   .   . .   . .   .

|-------------------------------|
|-------------------------------|
|-------------------------------|
|-------0-----(0)---------------|
|-X\\---0-----(0)-------/12\----|
|-X\\---0-----(0)-------/12\----|

|--------------------------------------------------------------------|
|--------------------------------------------------------------------|
|--------------------------------------------------------------------|
|-0---0-3p0-----------------------0---0-3p0---------------3-5-1------|
|-0---0-3p0---5h6---3h5-----------0---0-3p0---3h5---6p5---3-5-1------|
|-0---0-3p0-0-----0-----0-5h6-3h5-0---0-3p0-0-----0-----0-3-5-1------|
            .     .     .                   .     .     .

|--------------------------------------------------------------------|
|--------------------------------------------------------------------|
|--------------------------------------------------------------------|
|-0---0-3p0-----------------------6-----5-----3---5-----3-----1------|
|-0---0-3p0---5h6---3h5-----------6-0-0-5-0-0-3-0-5-0-0-3-0-0-1------|
|-0---0-3p0-0-----0-----0-3h5-6p3-6-0-0-5-0-0-3-0-5-0-0-3-0-0-1------|
            .     .     .           . .   . .   .   . .   . .

|--------------------------------------------------------------------|
|--------------------------------------------------------------------|
|--------------------------------------------------------------------|
|-0---0-3p0-----------------------0---0-3p0---------------3-5-1------|
|-0---0-3p0---5h6---3h5-----------0---0-3p0---3h5---6p5---3-5-1------|
|-0---0-3p0-0-----0-----0-5h6-3h5-0---0-3p0-0-----0-----0-3-5-1------|
            .     .     .                   .     .     .

|---------------------------------------------------------------------------------|
|---------------------------------------------------------------------------------|
|---------------------------------------------------------------------------------|
|-0---0-3p0-----------------------6-----5-----3---5-----3-----1------(1)----------|
|-0---0-3p0---5h6---3h5-----------6-0-0-5-0-0-3-0-5-0-0-3-0-0-1------(1)----/10\--|
|-0---0-3p0-0-----0-----0-3h5-6p3-6-0-0-5-0-0-3-0-5-0-0-3-0-0-1------(1)----/10\--|
            .     .     .           . .   . .   .   . .   . .

|--------------------------------------------------------------------|
|--------------------------------------------------------------------|
|--------------------------------------------------------------------|
|-0-------0---0-0---0-0---0---0-0-3-------3---3-3---3-3---3---3-3----|
|-0-------0---0-0---0-0---0---0-0-3-------3---3-3---3-3---3---3-3----|
|-0-------0---0-0---0-0---0---0-0-3-------3---3-3---3-3---3---3-3----|

|--------------------------------------------------------------------|
|--------------------------------------------------------------------|
|--------------------------------------------------------------------|
|-8-------8---8-8---8-8---8---8-8-5-------5---5-5/7-7-7---7---7-7----|
|-8-------8---8-8---8-8---8---8-8-5-------5---5-5/7-7-7---7---7-7----|
|-8-------8---8-8---8-8---8---8-8-5-------5---5-5/7-7-7---7---7-7----|

|--------------------------------------------------------------------|
|--------------------------------------------------------------------|
|--------------------------------------------------------------------|
|-0-------0---0-0---0-0---0---0-0-3-------3---3-3---3-3---3---3-3----|
|-0-------0---0-0---0-0---0---0-0-3-------3---3-3---3-3---3---3-3----|
|-0-------0---0-0---0-0---0---0-0-3-------3---3-3---3-3---3---3-3----|

|--------------------------------------------------------------------|
|--------------------------------------------------------------------|
|--------------------------------------------------------------------|
|-8-------8---8-8---8-8---8---8-8-10-----10--10-10\7-7-7---7---7-7---|
|-8-------8---8-8---8-8---8---8-8-10-----10--10-10\7-7-7---7---7-7---|
|-8-------8---8-8---8-8---8---8-8-10-----10--10-10\7-7-7---7---7-7---|

|--------------------------------------------------------------------|
|--------------------------------------------------------------------|
|--------------------------------------------------------------------|
|-5---5-5-5---5-5-------(5)-------7---7-7-7---7-7--------(7)---------|
|-5---5-5-5---5-5-------(5)-------5---5-5-5---5-5--------(5)---------|
|-5---5-5-5---5-5-------(5)-------5---5-5-5---5-5--------(5)---------|

|--------------------------------------------------------------------|
|--------------------------------------------------------------------|
|--------------------------------------------------------------------|
|-8---8-8-8---8-8-------(8)-------10--101010--10-10\5-5-5---5---5-5--|
|-8---8-8-8---8-8-------(8)-------8---8-8-8---8--8-\3-3-3---3---3-3--|
|-8---8-8-8---8-8-------(8)-------8---8-8-8---8--8-\3-3-3---3---3-3--|

gradually slower
|-------------------------------------------------------------------------|
|-------------------------------------------------------------------------|
|-------------------------------------------------------------------------|
|-5---5-5-5---5-5-------(5)-------7---7-7-7---7-7-------------(7)---------|
|-5---5-5-5---5-5-------(5)-------5---5-5-5---5-5-------------(5)---------|
|-5---5-5-5---5-5-------(5)-------5---5-5-5---5-5-------------(5)---------|

|---------------------------------------------------------|
|---------------------------------------------------------|
|---------------------------------------------------------|
|-10----10-10-10---10-10--------------------(10)----------|
|-8-----8--8--8----8--8---------------------(8)-----------|
|-8-----8--8--8----8--8---------------------(8)-----------|

next part 2 guitars in one
|---------------------------------------------------------------------------|
|---------------------------------------------------------------------------|
|---------------------------------------------------------------------------|
|-10-----------10-\7----------5---7---8----5h7--------------7---------(7)---|
|-0-----------(0)--------------------(0)-----------5--------5---------(5)---|
|-0-----------(0)--------------------(0)--------------------0---------(0)---|



************************************

| .   palm mute
| /   slide up
| \   slide down
| h   hammer-on
| p   pull-off
| ~   vibrato
| *   harmonic
| x   Mute note
| b   Bend
| pb  Pre-bend
| br  Bend release
| pbr Pre-bend release
| brb Bend release bend

************************************
Tap to rate this tab
# A B C D E F G H I J K L M N O P Q R S T U V W X Y Z