Song name
# A B C D E F G H I J K L M N O P Q R S T U V W X Y Z

Misc Unsigned Bands - Dilemma Uncovered - This Is The Song tab

-------------------------------------------------------------------------------
		  THIS IS THE SONG (TITS) - Dilemma Uncovered
-------------------------------------------------------------------------------
Composed by: Ben Highlander, Dominic Manns, Chris Manns
myspace.com/dilemmauncovered


Tabbed by: Caleb Severn
Tuning: Standard (EADGBe)

*Note that this is the acoustic version, not the punk version.
*Lyrics at bottom of page.


Intro/Verse/Chorus
e|-------------------------------------------------------------------------|
B|-------------------------------------------------------------------------|
G|---4-4-4-4--x-x--3-3-3-3-3-3-3-3-3-3-3-3---------------------------------|
D|---4-4-4-4--x-x--4-4-4-4-4-4-4-4-4-4-4-4---------------------------------|
A|---2-2-2-2--x-x--2-2-2-2-2-2-2-2-2-2-2-2---------------------------------|
E|------------x-x----------------------------------------------------------|


e|-------------------------------------------------------------------------|
B|-------------------------------------------------------------------------|
G|-444-4-4-4--x-x--3-3-3-3-3-3-3-3-3-3-3-3---------------------------------|
D|-444-4-4-4--x-x--4-4-4-4-4-4-4-4-4-4-4-4---------------------------------|
A|-xxx-x-x-x--x-x--x-x-x-x-x-x-x-x-x-x-x-x---------------------------------|
E|-222-2-2-2--x-x--2-2-2-2-2-2-2-2-2-2-2-2---------------------------------|


e|-------------------------------------------------------------------------|
B|-------------------------------------------------------------------------|
G|-444-4-4-4--x-x--3-3-3-3-3-3-3-3-3-3-3-3---------------------------------|
D|-444-4-4-4--x-x--4-4-4-4-4-4-4-4-4-4-4-4---------------------------------|
A|-xxx-x-x-x--x-x--x-x-x-x-x-x-x-x-x-x-x-x---------------------------------|
E|-444-4-4-4--x-x--4-4-4-4-4-4-4-4-4-4-4-4---------------------------------|

     (Played first time through)	  (Played second time through)
e|------------------------------------|------------------------------------|
B|------------------------------------|------------------------------------|
G|-444-4-4-4--4-4--3-3-3-3-3-3-4-4----|----444-4-4-4-4-4-3--3----3--4------|repeat.
D|-444-4-4-4--4-4--4-4-4-4-4-4-4-4----|----444-4-4-4-4-4-4--4----4--4------|
A|-222-2-2-2--2-2--1-1-1-1-1-1-2-2----|----222-2-2-2-2-2-1--1----1--2------|
E|------------------------------------|------------------------------------|



   Bridge {P.M.}............................................................
e|---------------------------------------------------------------------------|
B|---------------------------------------------------------------------------|
G|---------------------------------------------------------------------------|
D|--8-8-8-8-8-8-8-8-8-8-8-8-8-8-8-8-8-8-8-8-8-8-8-8-8-8-8-8-8-8-8-8-8-8-8-8--|
A|---------------------------------------------------------------------------|
E|---------------------------------------------------------------------------|

   P.M.......................................................................
e|---------------------------------------------------------------------------|
B|---------------------------------------------------------------------------|
G|---------------------------------------------------------------------------|
D|--9-9-8-8-9-9-8-8-9-9-8-8-9-9-8-8-9-9-8-8-9-9-8-8-9-9-8-8-9-9-8-8----------|
A|---------------------------------------------------------------------------|
E|---------------------------------------------------------------------------|

   P.M.......................................................................
e|---------------------------------------------------------------------------|
B|---------------------------------------------------------------------------|
G|---------------------------------------------------------------------------|repeat.
D|--11-11-8-8-11-11-8-8-11-11-8-8-11-11-8-8-9-9-8-8-9-9-8-8-8-8-8-8-8-8-8-8--|
A|---------------------------------------------------------------------------|
E|---------------------------------------------------------------------------|



  Solo/Final Chorus

e|-----------------------------------18///--19///--18///--19///--21///--19///|
B|-12///--14///--12///--11///-19///------------------------------------------|
G|---------------------------------------------------------------------------|
D|---------------------------------------------------------------------------|
A|---------------------------------------------------------------------------|
E|---------------------------------------------------------------------------|

e|-18///--19///--21///--19///--18///--19-------------------------------------|
B|---------------------------------------------------------------------------|
G|---------------------------------------------------------------------------|don't repeat.
D|---------------------------------------------------------------------------|
A|---------------------------------------------------------------------------|
E|---------------------------------------------------------------------------|

e|------------|
B|------------|
G|-----16~----|
D|------------|  This note holds for a solid 30 seconds or so.
A|------------|
E|------------|


************************************

| /// tremolo
| /   slide up
| \   slide down
| h   hammer-on
| p   pull-off
| ~   vibrato
| +   harmonic
| x   Mute note
| b   Bend
| pb  Pre-bend
| br  Bend release
| pbr Pre-bend release
| brb Bend release bend

************************************




This is a song meant to make you listen
It's not a song meant to make you cry
And I hope that you hear this
It's sad but you gotta know
I strongly believe that this is
The only way that you will get my message
If you have the radio on like you usually do
And I try to find why
Why
Why you dont
Care enough to force your anger
And focus on the current danger 
Of our situation
Care enough to force your anger
And focrus on the current danger
Of our situation

This is a song meant to make you listen
It's not a song meant to make you cry
And I know that it can be powerful
Only if you try 
To cooperate
With the operation of love
And everyone knows that you
Have to cut deep for the cure
And I try to find why
Why
Why you dont
Care enough to force your anger
And focus on the current danger 
Of our situation
Care enough to force your anger
And focus on the current danger 
Of our situation

This is a song meant to make you listen
It's not a song meant to make you cry
And I hope that you hear this
It's sad but you gotta know
I strongly believe that this is
the only way that you will get my message
If you have the radio on like you usually do

This is a song meant to make you listen
It's not a song meant to make you cry
And I know that it can be powerful
Only if you try
To cooperate
With the operation of love
And everyone knows that you
Have to cut deep for the cure
Tap to rate this tab
 
# A B C D E F G H I J K L M N O P Q R S T U V W X Y Z