Song name
# A B C D E F G H I J K L M N O P Q R S T U V W X Y Z

Misc Unsigned Bands - Dantalife - I tab

Dantalife - "I"
http://www.xfrontlineapparelx.com/download/onev2.mp3

Tuning
C F A♯ D♯ G C

Intro

C-----------|
G------12---|
D---------9-|
A---10------|
F-0---------|
C-----------|

C-----------|
G------12---|
D---------9-|
A---10------|
F-----------|
C-0---------|

Verse One

C---------------------------------------|
G-12-12-12-12--12-12-12-12--10-10-12-12-|
D-09-09-09-09--00-00-00-00--00-00-00-00-|
A-10-10-10-10--09-09-09-09--00-00-00-00-|
F--------------10-10-10-10--07-07-09-09-|
C---------------------------08-08-10-10-|

Verse Two

(same chords just faster)

Transition

C----------|
G----------|
D----------|
A-02-04-02-|
F-02-05-03-|
C----------|

Verse Three

(same chords just slower, then...)

C------|
G------|
D------|
A-02-02
F-02-02
C------

Transition

C-------------|
G-------------|
D-------------|
A-02-04-09-09-|
F-03-05-10-10-|
C-------------|

Verse Four

C----------------|
G-12-12-05-12-07-|
D-09-00-00-00-00-|
A-10-09-02-09-04-|
F----10-03-10-05-|
C----------------|

Verse Five

C-------------------------------|
G-------------------------------|
D----------09-07----------09-12-|
A-10-09-12-09-07-10-09-12-09-12-|
F-10-10-10-07-05-10-10-10-07-10-|
C-08-08-08-------08-08-08-------|

Transition

C----------------|
G----------------|
D-17-19-16-17----|
A-17-17-17-17-02-|
F-15-15-15-15-02-|
C----------------|

Outro

C-------------------------|
G-------------------------|
D-------------------------|
A-02-02-02-02-02-04-02-02-|
F-02-02-02-02-03-05-02-02-|
C-------------------------|
Tap to rate this tab
# A B C D E F G H I J K L M N O P Q R S T U V W X Y Z