Song name
# A B C D E F G H I J K L M N O P Q R S T U V W X Y Z

Misc Unsigned Bands - Marc Claproth - Im Sorry chords

Highlighted       Show chord diagrams
ok look.. it sucks.. but oh well... this is my first song with lyrics... so be easy on me.


(DEMO)

base on 'C mystro'

           "I'm Sorry"


           intro/verse
    E           D#     C#        F#
|--------------11------9----------------|
|--11----------------------------7   -7-|
|--9-----------11------9---------8 OR-8-|
|--11----------11------9---------6   -6-|
|---------------------------------   -7-|
|---------------------------------------|

            chores
   B      G#       F# (POWER)   C#
|---------4---------------------9-|
|--4--------------7---------------|
|---------4-------9------------10-|
|--4------4-------8------------10-|
|--4------------------------------|
|---------------------------------|

     outtro
---7
-7 0
-8 8
-6 6
-7 7

intro

verse
i met you on a summer night
you brought me such a pleasant sight
i only wanted to tell you hi
but i was scared you'll say goodbye

verse
we started to talk in the next morning
i told you sorry if i was so boring
you said i wasn't that i was nice
and thats when i know not to roll the dice.
intro

verse
when i was with you i felt so free
like if you just handed me the masterkey
i never wanted to leave your sight
i just wanted to be with you every night.

verse
you told me that you where moving to the beach
i told you that you'll never be out in my reach
you told me not to have a fuss
but you should of always had my trust

verse(play slow)
i miss looking into your eyes
it feels like i'll never hear those goodbyes
*
*

chores
( B and G# x2)
i wonder when
when you will smile for me again.
cause what we made just had to go in the fade.

chores
(F# power)
i'll never stop thinking out you. i dont know what i do without you.( strum fast)

*outro*

intro (one strum or each chord)
I'm sorry for the things i've done
i'll pay the price for everyone
if only you know how much i've felt
then i'll never even been in that doubt


myspace.com/marcclaproth
Tap to rate this tab
# A B C D E F G H I J K L M N O P Q R S T U V W X Y Z