Song name
# A B C D E F G H I J K L M N O P Q R S T U V W X Y Z

Misc Unsigned Bands - Super Xx Man - Grace Glorified tab

Super XX Man - Grace (Glorified)

This is it; Two simple riffs for the entire song.

E|----------------------------------------------------------|
B|---------------------------3---------------------------3--|
G|-------------------------3---------------------------3----|
D|-----3-----3-----3-----3---------3-----3-----3-----3------|
A|--1-----1-----1-----1---------0-----0-----0-----0---------|
E|----------------------------------------------------------|

                                                      (End)
E|----------------------------------------------------|---|
B|----------------------------------------------------|---|
G|----------------------------------------------------|---|
D|-----3-----3-----3------------3-----3-----3---------|-1-|
A|--1-----1-----1----------0-1-----1-----1----------0-|---|
E|--------------------3-3----------------------3-3----|---|

http://www.superxxman.com/
Tap to rate this tab
# A B C D E F G H I J K L M N O P Q R S T U V W X Y Z