Song name
# A B C D E F G H I J K L M N O P Q R S T U V W X Y Z

Misc Unsigned Bands - Emergency Escape - Country Of Kings tab

Intro/Verse (Clean)
e|-0---------0--------0---------0--------------------------------------------|
B|-0---------0--------0---------0--------------------------------------------|
G|-0---------4--------5---------7--------------------------------------------|
D|-2--x3-----4--x3----5---x3----7----x3--------------------------------------|
A|-2---------2--------3---------5--------------------------------------------|
E|-0---------0--------0---------0--------------------------------------------|

e|-0---------0---------0---------0-------|
B|-0---------0---------0---------0-------|
G|-0---------4---------0---------4-------|Repeat A Few Times
D|-2--x3-----4----x3---5--x3-----4-------|
A|-2---------2---------5---------2---x3--|
E|-0---------0---------3---------0-------|

Chorus (Distortion)
e|--------------------------------------------|
B|--------------------------------------------|
G|--------------------------------------------|
D|-------4---5---7----------------4--------4--|Repeat Twice
A|---2---2---3---5------------2---2---3----2--|
E|---0------------------------0-------5-------|
Breakdown
e|---------------------------------------------------------------------------|
B|---------------------------------------------------------------------------|
G|---------------------------------------------------------------------------|
D|------------------------------------4--5--4--5--4---4--5--4-5-7777---------|
A|-2-----2--2-2-2-2-----2--2-2-2------222333222333225-22233322335555---------|
E|-000000000000000000000000000000-------------------3------------------------|

e|-----------------------------------------------------------|
B|-----------------------------------------------------------|
G|-----------------------------------4-----5-----7-----9-----|
D|-----------------------------------x-x3--x-x3--x-x3--x-x3--|Repeat Twice
A|-2-----2--2-2-2-2-----2--2-2-2-----2-----3-----5-----7-----|
E|-000000000000000000000000000000----------------------------|

After the solo.repeat the verse and then the chorus a final time and then end with an Em chord
Tap to rate this tab
# A B C D E F G H I J K L M N O P Q R S T U V W X Y Z