Song name
# A B C D E F G H I J K L M N O P Q R S T U V W X Y Z

Misc Unsigned Bands - Fresh Wind - If You Where Here chords

Highlighted       Show chord diagrams
The Intro Goes Like This:
      Bm             G             D             D

E--------------------------------------------------------| 
b--------------------------------------------------------|
g--------------------4~------------7~------------7~------| x2
d------9~------------5~------------7~------------7~------|
a------9~------------5~------------5~------------5~------|
e------7~------------3~----------------------------------|

Then The Through The Song:
      Bm             G             D             A

E--------------------------------------------------------|
b--------------------------------------------------------|
g--------------------4~------------7~--------------------|
d------9~------------5~------------7~------------7~------|
a------9~------------5~------------5~------------7~------|
e------7~------------3~--------------------------5~------|

I hadn't time to write down the rythm but it will come soon.. 
The guitar solo also!

      Lyrics:

Verse I
If you where here
life would be so perfect
if you where heeere
everything would be alright

Chorus I
Where are you now
I will travell the world to find ya
Rock 'n roll babe
I'm coming to get you in love
....

More will come soon!
Happy holiday and GOOD NIGHT!

Ketail96
Tap to rate this tab
# A B C D E F G H I J K L M N O P Q R S T U V W X Y Z