Song name
# A B C D E F G H I J K L M N O P Q R S T U V W X Y Z

Misc Unsigned Bands - The Happy Geckos - I Sold My Soul To Satan So That I Could Write This Song tab

-------------------------------------------------------------------------------
   The Happy Geckos-I Sold my Soul To Satan So That I Could Write This Song	     
-------------------------------------------------------------------------------

The Happy Geckos Official Site
WARNING! NOT FOR SMALL CHILDREN OR CHRISTIAN SOCCER MOMS! Or anybody without a 
sick sense of humor....

The Happy Geckos Official MySpace
http://www.itdontmattercauseyoullneverfindit1.webs.com

The Happy Geckos Official Facebook
http://www.facebook.com/group.php?gid=111959295753&ref=ts

Tabbed by: Trivium_Child
Email: Trivium_Child@live.ca

Tuning: BEADGB 

SHRED!!!!!!!!!!!!!!!!!!!!!!!!
e|-13-12-10-----------------------------------------------------|
B|----------14-13-11--------------------------------------------|
G|-------------------14-13-11-13-11-10--------------------------|
D|-------------------------------------12-11-9------------------|
A|---------------------------------------------12-11-9----------|
E|-----------------------------------------------------12-11-9--|

e|------------------------------------------------|
B|------------------------------------------------|
G|------------------------------------------------|
D|---------------9-10-12-10-9---------------------|
A|--------8-9-11--------------11-9-8--------------|
E|-7-8-10----------------------------10-8-7~~~----|

             Lyrics written by Shriner 69er
            --------------------------------

                     BLAH!!!!!!!!!!!!
                Fetus, Fetus, Fetus, Fetus
                     BLAH!!!!!!!!!!!!

               Music Composed By Shriner 69er
  
Tap to rate this tab
# A B C D E F G H I J K L M N O P Q R S T U V W X Y Z