Song name
# A B C D E F G H I J K L M N O P Q R S T U V W X Y Z

Misc Unsigned Bands - Jentry Chesnut - Stay With Me tab

e|-----------------------------------------------------------------------|
B|-----------------------------------------------------------------------|
G|-----------------------------------------------------------------------|
D|-----------------------------------------------------------------------|
A|------10---------7----------14---------5--------X//////////------------|
E|--7----------3---------10----------5------------X//////////------------|

e|---------------------------------------------------------------------------|
B|---------------------------------------------------------------------------|
G|---------------------------------------------------------------------------|
D|-10-10-10-x-12-12-12-x--7-7-7-x-5-5-5-x-14-14-14-x-15-15-15-x-9-9-9-x-5-5-5|
A|-7--7--7--x-7--7--7--x--3-3-3-x-3-3-3-x-10-10-10-x-10-10-10-x-5-5-5-x-5-5-5| x2
E|-7--7--7--x-7--7--7--x--3-3-3-x-3-3-3-x-10-10-10-x-10-10-10-x-5-5-5-x-5-5-5|

Verse: 

e|---------------------------------------------------------------|
B|---------------------------------------------------------------|
G|---------------------------------------------------------------|
D|----10---10---10---10---7---7---7---7----14----14----14----14--|
A|---------------------------------------------------------------|
E|--7----7----7----7----3---3---3---3---10----10----10----10-----|

e|---------------------------------------------------------------|
B|---------------------------------------------------------------|
G|---------------------------------------------------------------|
D|----9---9---5---5----------------------------------------------| x2
A|---------------------------------------------------------------|
E|--5---5---5---5------------------------------------------------|

Chorus:

e|---------------------------------------------------------------------------|
B|---------------------------------------------------------------------------|
G|---------------------------------------------------------------------------|
D|-10-10-10-x-12-12-12-x--7-7-7-x-5-5-5-x-14-14-14-x-15-15-15-x-9-9-9-x-5-5-5|
A|-7--7--7--x-7--7--7--x--3-3-3-x-3-3-3-x-10-10-10-x-10-10-10-x-5-5-5-x-5-5-5| x3
E|-7--7--7--x-7--7--7--x--3-3-3-x-3-3-3-x-10-10-10-x-10-10-10-x-5-5-5-x-5-5-5|

Verse:

e|---------------------------------------------------------------|
B|---------------------------------------------------------------|
G|---------------------------------------------------------------|
D|----10---10---10---10---7---7---7---7----14----14----14----14--|
A|---------------------------------------------------------------|
E|--7----7----7----7----3---3---3---3---10----10----10----10-----|

e|---------------------------------------------------------------|
B|---------------------------------------------------------------|
G|---------------------------------------------------------------|
D|----9---9---5---5----------------------------------------------|
A|---------------------------------------------------------------|
E|--5---5---5---5------------------------------------------------|

Chorus:

e|---------------------------------------------------------------------------|
B|---------------------------------------------------------------------------|
G|---------------------------------------------------------------------------|
D|-10-10-10-x-12-12-12-x--7-7-7-x-5-5-5-x-14-14-14-x-15-15-15-x-9-9-9-x-5-5-5|
A|-7--7--7--x-7--7--7--x--3-3-3-x-3-3-3-x-10-10-10-x-10-10-10-x-5-5-5-x-5-5-5| x3
E|-7--7--7--x-7--7--7--x--3-3-3-x-3-3-3-x-10-10-10-x-10-10-10-x-5-5-5-x-5-5-5|

Bridge:

e|--------------------------------------------------------------------------|
B|--------------------------------------------------------------------------|
G|--------------------------------------------------------------------------|
D|--7-7-7-x-7-7-7-x-3-3-3-x-3-3-3-x-10-10-10-x-10-10-10-x-5-5-5-x-5-5-5-----|x2
A|--7-7-7-x-7-7-7-x-3-3-3-x-3-3-3-x-10-10-10-x-10-10-10-x-5-5-5-x-5-5-5-----|
E|--7-7-7-x-7-7-7-x-3-3-3-x-3-3-3-x-10-10-10-x-10-10-10-x-5-5-5-x-5-5-5-----|

Solo:

e|---------------------------------------------------------------------------|
B|---------------------------------------------------------------------------|
G|---------------------------------------------------------------------------|
D|--10-12-12^--12-10-12--10----10-------10-12-12^--12-10-12--10----10--14----|
A|--------------------------12----10----------------------------12-----------|
E|---------------------------------------------------------------------------|

e|--------------------------------------------------------------------------|
B|--------------------------------------------------------------------------|
G|--------------------------------------------------------------------------|
D|--10-12-12^--12-10-12--10----10----10-12-12^--12-10-12--10----10-10~~-----|
A|--------------------------12----10-------------------------12-------------|
E|--------------------------------------------------------------------------|

Chorus:

e|----------------------------------------------------------------------------|
B|----------------------------------------------------------------------------|
G|----------------------------------------------------------------------------|
D|-10-10-10-x-12-12-12-x--7-7-7-x-5-5-5-x-14-14-14-x-15-15-15-x-9-9-9-x-5-5~-5|
A|-7--7--7--x-7--7--7--x--3-3-3-x-3-3-3-x-10-10-10-x-10-10-10-x-5-5-5-x-5-5~-5| x3
E|-7--7--7--x-7--7--7--x--3-3-3-x-3-3-3-x-10-10-10-x-10-10-10-x-5-5-5-x-5-5~-5|

Lyrics:
INTRO
You are,the one i want to know
You are,the on i want to show how much i care..

VERSE 1 

Baby,come and rest into my arms
I'll show you how to go far when you take the road less traveled.
So baby just Stay...Stay with me..

CHORUS 

I,I gotta be everything to you
I,I try to show you how much i care when every time i always fail
So baby c'mon and stay...Stay with me 

VERSE 2 

I will always mean what i say when i tell you that i love you.
Really love that feeling when im thinking about you!
Never thought i girl like you would love me this way
So come and stay with me on this very sunny day

CHORUS

I,I gotta be everything to you
I,I try to show you how much i care when every time i always fail
So baby c'mon and stay...Stay with me 

| /  slide up
| \  slide down
| h  hammer-on
| p  pull-off
| ~  vibrato
| +  harmonic
| x  Mute note

Hey its me again...hope you enjoy this tab also..its is too an original.
Tap to rate this tab
 
# A B C D E F G H I J K L M N O P Q R S T U V W X Y Z