Song name
# A B C D E F G H I J K L M N O P Q R S T U V W X Y Z

Misc Unsigned Bands - Artless Rejection - Butterflies And Bruises tab

-------------------------------------------------------------------------------
			     butterflies and bruises - Artless Rejection
-------------------------------------------------------------------------------
Tabbed by:randomEKC
Email:laine_starr@hotmail.com

Tuning:standard



It's for the first two verses for sure.. I think ;D

(down down up up down up down) 


   I sit here...  the next stop.. where i'll burry.. but take my hand..
e|---------------------------------------------------------------------------|
B|---------------------------------1111111111111-----------------------------|
G|----------------4444444----------4444444444444-----------------------------|
D|-2222222--------5555555----------5555555555555------2222222----------------|
A|-3333333-------------------------------3333333------3333333----------------|
E|---------------------------------------------------------------------------|
^^^^^^^ start at "peace"


  and lead me.. i could never.. live .this .way
e|---------------------------------------------------------------------------|
B|---------------------------------------------------------------------------|
G|-4444444-----4444444----------8\----6\----4\--22222\---111111--------------|
D|-5555555-----5555555----------9\----7\----5\--33333\---222222--------------|
A|-------------5555555----------9\----7\----5\--33333\---222222--------------|
E|-------------4444444----------8\----6\----4\--22222\---111111--------------|


(live. this. way. should only be one strum down and / = slide left/down)

************************************

| /   slide up
| \   slide down
| h   hammer-on
| p   pull-off
| ~   vibrato
| +   harmonic
| x   Mute note
| b   Bend
| pb  Pre-bend
| br  Bend release
| pbr Pre-bend release
| brb Bend release bend

************************************
Tap to rate this tab
# A B C D E F G H I J K L M N O P Q R S T U V W X Y Z