Song name
# A B C D E F G H I J K L M N O P Q R S T U V W X Y Z

Misc Unsigned Bands - Dantalife - Ii tab

Dantalife - "II"
http://www.xfrontlineapparelx.com/download/oneandtwov2.mp3

Tuning
C F A♯ D♯ G C

Verse One

C-12-10-03-05----|
G-00-00-00-00----|
D-00-00-00-00----|
A-09-09-02-04-02-|
F-10-10-03-05-02-|
C-08-08----------|

Transition

C-12-10-05-03----|
G-00-00-00-00----|
D-00-00-00-00----|
A-09-09-04-02-02-|
F-10-10-05-03-02-|
C-08-08----------|

Verse Two

C-12-14-19--12-14-19/17-|
G-00-00-00--00-00-00----|
D-00-00-00--00-00-00----|
A-09-11-16--09-11-16----|
F-10-12-17--10-12-17----|
C-08-10-15--08-10-15----|

Verse Three

C-07-05----07-05-10----07-05----07-10-05-07----|
G-00-00----00-00-00----00-00----00-00-00-00----|
D-00-00----00-00-00----00-00----00-00-00-00----|
A-00-00-02-00-00-00-02-00-00-02-00-00-00-00-02-|
F-05-03-02-05-03-08-02-05-03-02-05-08-03-05-02-|
C-07-05----07-05-10----07-05----07-10-05-07----|

Verse Four

C----------------------------------------|
G----------------------------------------|
D----------------------------------------|
A---2-4---7-5-02-02----2-4---7-4-9-02-02-|
F-3-----3-----02-02--3-----3-------02-02-|
C----------------------------------------|

Fill

C----|
G----|
D----|
A-02-|
F-02-|
C----|

Verse Six

C-----5-----3----|
G----------------|
D----------------|
A---4-----2---02-|
F-5-----3-----02-|
C----------------|

Fill

C----|
G----|
D----|
A-02-|
F-02-|
C----|

Verse Seven

C-12-10-03-05----|
G-00-00-00-00----|
D-00-00-00-00----|
A-09-09-02-04-02-|
F-10-10-03-05-02-|
C-08-08----------|

slow, fast, slow, fast, faster, faster, faster, then end on...

C-12-10-05-03----|
G-00-00-00-00----|
D-00-00-00-00----|
A-09-09-04-02-02-|
F-10-10-05-03-02-|
C-08-08----------|
Tap to rate this tab
# A B C D E F G H I J K L M N O P Q R S T U V W X Y Z