Song name
# A B C D E F G H I J K L M N O P Q R S T U V W X Y Z

Misc Unsigned Bands - Joshua Fit For Battle - Dreams tab

Band - Joshua Fit For Battle
Song - Dreams
Tabbed By : SumFX (Tyler Freear)

Great song by JFFB unfortunatly i havn't got their CD :(
This song leads straight into Twelve Years Of Catholic School
and i will tab that later.

Note! - JFFB play in Drop D but i have done this for Standard!
I believe you know what to change if you want to play this in Drop D
but if you don't please comment and i will get back to you ASAP.

I have tabbed out 2 Guitar parts when its most notable.

Intro
Guitar 1         Guitar 2
|---------------|-------------------------|
|----7----7---7-|-------11-------11----11-|
|-44---44---4---|-14-14----14-14----14----|
|---------------|-------------------------|
|---------------|-------------------------|
|---------------|-------------------------|
Main Riff     Variation
|------------|-------------------------|
|------------|-------------------------|
|-556655-----|-556655-1212121213131313-|
|-xxxxxx-556-|-xxxxxx-x-x-x-x-x-x-x-x--|
|-334433-xxx-|-334433-1010101011111111-|
|--------334-|-------------------------|

Clean Section
Guitar 1         Guitar 2
|----------------|-------------------------|
|----------------|-------------------------|
|-5---6----------|-------------------------|
|-5---6---5---6--|---565---565---565---565-|
|-3---4---5---6--|-3-----4-----------------|
|---------3---4--|-------------3-----4-----|
Outro                    End On
|------------------------|----|
|------------------------|----|
|-55-66-88-1010-12121313-|-5--|
|-xx-xx-xx-x-x--x-x-x-x--|-x--|
|-33-44-66-8-8--10101111-|-3--|
|------------------------|----|

There you have it!
I can't seem to find their CD or any downloads so if anyone has
an idea where i can find more of their songs, do tell!

Rate & Comments will be appriciated!
Tap to rate this tab
# A B C D E F G H I J K L M N O P Q R S T U V W X Y Z