Song name
# A B C D E F G H I J K L M N O P Q R S T U V W X Y Z

Misc Unsigned Bands - Eternal Afterlife - Facing The Enemy tab

Facing The Enemy

Tuning: Drop D

x - Mute on 1st fret
* - Mute on 3rd fret

|-----|
|-----|
|-----|
|-12\-|
|-12\-|
|-12\-|


[Fig 1]

This should help with the timing since you cant hear it because even I had trouble 
remembering it...

  1   +   2   +   3   +   4   +    
|---------------------------------|
|---------------------------------|
|---------------------------------|
|-0-----0-0h1p0-----0-0h3p0---035-|
|-0-----0-0h1p0-----0-0h3p0---035-|
|-0-----0-0h1p0-----0-0h3p0---035-|


  1   +   2   +   3   +   4   +    
|---------------------------------|
|---------------------------------|
|---------------------------------|
|-0-----0-0h1p0-----0-0h3-3\2-2\1-|
|-0-----0-0h1p0-----0-0h3-3\2-2\1-|
|-0-----0-0h1p0-----0-0h3-3\2-2\1-|

  1   +   2   +   3   +   4   +    
|---------------------------------|
|---------------------------------|
|---------------------------------|
|-0-----0-0h1p0-----0-0h3p0---035-|
|-0-----0-0h1p0-----0-0h3p0---035-|
|-0-----0-0h1p0-----0-0h3p0---035-|


  1   +   2   +   3   +   4   +    
|---------------------------------|
|---------------------------------|
|---------------------------------|
|-0-----0-0h1p0-----0-0h3-*-*-*-*-|
|-0-----0-0h1p0-----0-0h3-*-*-*-*-|
|-0-----0-0h1p0-----0-0h3-*-*-*-*-|

[Repeat Fig 1]


[Fig 2]

|-----------------------------------------------------------------|
|-----------------------------------------------------------------|
|-----------------------------------------------------------------|
|-x-x-x-x-0---x-x-x-x-0---x-x-x-1-x-x-x-x-0---x-x-x-x-0---3-3-5-5-|
|-x-x-x-x-0---x-x-x-x-0---x-x-x-1-x-x-x-x-0---x-x-x-x-0---3-3-3-3-|
|-x-x-x-x-0---x-x-x-x-0---x-x-x-1-x-x-x-x-0---x-x-x-x-0---3-3-3-3-|


|-------------------------------------------------------------------------|
|-------------------------------------------------------------------------|
|-------------------------------------------------------------------------|
|-x-x-x-x-0---x-x-x-x-0---x-x-x-1-x-x-x-x-0---x-x-x-x-0-------------------|
|-x-x-x-x-0---x-x-x-x-0---x-x-x-1-x-x-x-x-0---x-x-x-x-0-------------------|
|-x-x-x-x-0---x-x-x-x-0---x-x-x-1-x-x-x-x-0---x-x-x-x-0---023-023-023-023-|

[Repeat Fig 2]


[Fig 3]

|-----------------------------------------------------------------|
|-----------------------------------------------------------------|
|-----------------------------------------------------------------|
|-0-----0-x-x-0-----0-0/3-3/4-4/5-7h8-----8-8\5-----x-x---5---8---|
|-0-----0-x-x-0-----0-0/3-3/4-4/5-7h8-----8-8\5-----x-x---7---8---|
|-0-----0-x-x-0-----0-0/3-3/4-4/5-7h8-----8-8\5-----x-x---5---8---|


|-----------------------------------------------------------------|
|-----------------------------------------------------------------|
|-----------------------------------------------------------------|
|-0-----0-x-x-0-----0-0/3-3/4-4/5-7h8-----8-8\5-----x-x---5---2---|
|-0-----0-x-x-0-----0-0/3-3/4-4/5-7h8-----8-8\5-----x-x---5---2---|
|-0-----0-x-x-0-----0-0/3-3/4-4/5-7h8-----8-8\5-----x-x---5---2---|

[Play Fig 1 once]


[Play Fig 2]


[Play Fig 3]


[Fig 4 / Bridge to solo]

|----------------------------------------|
|----------------------------------------|
|----------------------------------------|
|-0-----------x-1-----0-----------x-3----|
|-0-----------x-1-----0-----------x-3----| Play 2X
|-0-----------x-1-----0-----------x-3----|

|-----------1---------------0---------------0---------------------|
|-----3---3-----3-----1---1-----1-----1---1-----1-----3-------3---|
|---2---2-----2-----2---2-----2-----2---2-----2-----5---5---4---4-|
|-0---------------0---------------3---------------5-------5-------| Play 2X
|-----------------------------------------------------------------|
|-----------------------------------------------------------------|


|-----------------------------------------|
|-----------------------------------------|
|-----------------------------------------|
|-x-x-x-x-0---x-x-x-x-0-------------------|
|-x-x-x-x-0---x-x-x-x-0-------------------|
|-x-x-x-x-0---x-x-x-x-0---023-023-023-023-|

|-----------------------------------------|
|-----------------------------------------|
|-----------------------------------------|
|-x-x-x-x-0---x-x-x-x-0-------------------|
|-x-x-x-x-0---x-x-x-x-0-------------------|
|-x-x-x-x-0---x-x-x-x-0---023-023-035-035-|

|-----------------------------------------|
|-----------------------------------------|
|-----------------------------------------|
|-x-x-x-x-0---x-x-x-x-0-------------------|
|-x-x-x-x-0---x-x-x-x-0-------------------|
|-x-x-x-x-0---x-x-x-x-0---023-023-023-023-|

|-----|
|-----|
|-----|
|-----|
|-----|
|-023-| 8X

|-----|
|-----|
|-----|
|-----|
|-----|
|-035-| 4X

|-----|
|-----|
|-----|
|-----|
|-035-| 4X
|-----|


[Fig 5 / Solo]

If you have an amp or pedal with a delay effect now's the time to use it

Also its a tapping solo so it should sound crazy!


e|-10-12-15-10-12-15-10-12-15-10-12-15-|

e|-10-12-17-10-12-17-10-12-17-10-12-17-|

e|-10-12-19-10-12-19-10-12-19-10-12-17-|

e|-10-12-17-10-12-17-10-12-17-10-12-17-|

e|-9-12-15-9-12-15-9-12-15-9-12-15-|

e|-9-12-17-9-12-17-9-12-17-9-12-17-|

e|-9-12-19-9-12-19-9-12-19-9-12-19-|

e|-9-12-17-9-12-17-9-12-17-9-12-17-|

[Repeat Fig 5]


[Play Fig 1]


[Play Fig 2]


Fade out with last note


[End Of Song]
Tap to rate this tab
# A B C D E F G H I J K L M N O P Q R S T U V W X Y Z