Song name
# A B C D E F G H I J K L M N O P Q R S T U V W X Y Z

Misc Unsigned Bands - Jared Metz - Open tab

So, there was this guy at guitar center, who heard me playing my song, and he told me to 
it because he liked it so much! Here ya go man. If you want the actual song, I'll 
out how to get it to you so you can hear how it sounds.

Tabbed by: Jared Metz
Email: guitar_crazy12@hotmail.com

Tuning: DADGBD

D|---------------------------0----------------------------------------------|
B|--------------------------------------------------------------------------|
G|--6h7---6-----4/6--4\2-----------------0----------------------------------|
D|----------0------------4-----4---4-------4---4-----4h5--4p2---------------|
A|-----------------------------------0-----------0------------5-------------|
D|--0---0-----0-0----0----0------0-----0-----0-----0-0----------------------|

D|---------------------------------------------------------------------------|
B|---------------------------------------------------------------------------|
G|---------0--------0-------------------------2------------------------------|
D|--0----------0-------------4----5-----2---2---2---2------------------------|
A|------2--------2-----2----------------0-0-------0---0----------------------|
D|--5-5---5--5-----5-----5---0--0---0----------------------------------------|


That's the whole intro! If you want the rest, I'll try my best to finish it, but tabbing 
a long process, and I'm short on time and patience lol.
************************************

| /   slide up
| \   slide down
| h   hammer-on
| p   pull-off
| ~   vibrato
| +   harmonic
| x   Mute note
| b   Bend
| pb  Pre-bend
| br  Bend release
| pbr Pre-bend release
| brb Bend release bend

************************************
Tap to rate this tab
# A B C D E F G H I J K L M N O P Q R S T U V W X Y Z