Song name
# A B C D E F G H I J K L M N O P Q R S T U V W X Y Z

Misc Unsigned Bands - Above Us All - Find My Way tab

Intro + Verse (intro x2) (verse x4)

"toights the night where i make my move, i know im right even if i lose"
"she's all im thinkin about, shes all that i know, the thought of loosing her, cant bare 
let her go"

E---22222222----------------55555555-----------------|
A---44444444----55555555----77777777----77777777-----|
D---------------77777777----------------99999999-----|
G----------------------------------------------------|
B----------------------------------------------------|
e----------------------------------------------------|

Pre Chorus (x2) (10 not 1 and open)

E---55555555-------------99999999p1095---|
A------------999977775-------------------|
D----------------------------------------|
G----------------------------------------|
B----------------------------------------|
e----------------------------------------|

Chorus (x4)

(woah)
"and now i look to your eyes, to find my way today, and if i dont know what to say, i 
find my own way, my own way"

E---55555555--------------22222222------------|
A---77777777----77777777--44444444--55555555--|
D---------------99999999------------77777777--|
G---------------------------------------------|
B---------------------------------------------|
e---------------------------------------------|

Rpt Verse

"todays the day where i find my way, i know its hard but i just cant stay"
"this place that we call home is nothing but a blur, i gave up everything and all my 
for her"

Rpt Pre Chorus and Chorus

Bridge Part 1 (x2)
Pick each note.


E---5-------2------|
A---5---7---2---5--|
D---7---7---4---7--|
G-------9-------7--|
B------------------|
e------------------|

Bridge Part 2 (x2)
Palm Muted.

"i gave you my all just to hold you in my arms, ive dreamed of better days but now they 
so far..."

E---55555555------------22222222------------|
A---77777777--77777777--44444444--55555555--|
D-------------99999999------------77777777--|
G-------------------------------------------|

Rpt Chorus (x6)
End.

Great local band, take a listen! :)
www.myspace.com/thisisaboveusall
Tap to rate this tab
# A B C D E F G H I J K L M N O P Q R S T U V W X Y Z