Song name
# A B C D E F G H I J K L M N O P Q R S T U V W X Y Z

Misc Unsigned Bands - Matt Travis - Scream tab

-------------------------------------------------------------------------------
			     SONG NAME - Band Name
-------------------------------------------------------------------------------
Tabbed by:
Email:

Tuning:
Rhythm all the way through - remove vibrate after second play
e|4--2---9-9---79--4--2--9-9--7v--------------------------------------------|
B|5--3---1010--810-5--3--1010-8v--------------------------------------------|
G|4--2---9-9---79--4--2--9-9--7v--------------------------------------------|
D|--------------------------------------------------------------------------|
A|--------------------------------------------------------------------------|
E|--------------------------------------------------------------------------|

Lead: Repeat But Play Verse Only
e|--10-15-------------------------14-----14-----12----12--------------------|
B|-------13-12-15-13-12v---13-12----15-----13-----15----13---1313-15--------|
G|-----------------------12-----12----12-----12-----12----12-1212-12--------|
D|12------------------------------------------------------------------------|
A|--------------------------------------------------------------------------|
E|--------------------------------------------------------------------------|

Solo Coming Shortly.
Putting lyics on hold just wrote a song better than sweet child of mine I think. not 
song I'm on aobut. bye.

************************************

| /   slide up
| \   slide down
| h   hammer-on
| p   pull-off
| v   vibrato
| +   harmonic
| x   Mute note
| b   Bend
| pb  Pre-bend
| br  Bend release
| pbr Pre-bend release
| brb Bend release bend

************************************
Tap to rate this tab
 
# A B C D E F G H I J K L M N O P Q R S T U V W X Y Z