Song name
# A B C D E F G H I J K L M N O P Q R S T U V W X Y Z

Misc Unsigned Bands - Gold Motel - Perfect In My Mind chords

Highlighted       Show chord diagrams
-------------------------------------------------------------------------------
		       Perfect in my Mind - Gold Motel
-------------------------------------------------------------------------------
Tabbed by: Magical Asian
Email: voteforpedro185@hotmail.com

Tuning: Standard

Chords Used:

    C        D (of some sort)  F       G#

e|--9--------11----------------2--------4-------------------------------------|
B|--9--------11----------------2--------4-------------------------------------|
G|--10-------12----------------3--------5-------------------------------------|
D|--11-------11----------------4--------6-------------------------------------|
A|--11-------13----------------4--------6-------------------------------------|
E|--9--------11----------------2--------4-------------------------------------|

Intro:

C   D   D   C


Verse 1:

C              D
I don't have forever
D                 C
but I live like I do
C                     D              
it feels like endless summer
D                 C
the light shining through


Verse 2:

C             D
all I have is borrowed
D               C
my skin and my bones
C             D
all I have is borrowed
D                       C
but I wear these summer clothes


Chorus:

F    G#        C 
everything is just fine
F    G#        C
everything is just fine
F       G#     C
so long as I'm by your side
F            G#      C
it's perfect in my mind


Verse 3:

C              D
I don't have a reason
D                 C
but I live like I do
C                 D
sky could crash into the ground
D                 C
and we'd like the view


Verse 4:

C                          D                   
the flood runs through the canyons 
D           C
of new york city
C                D    
I know when the hurricane comes
D               C
it's coming for me


Chorus:

F    G#        C 
everything is just fine
F    G#        C
everything is just fine
F       G#     C
so long as I'm by your side
F            G#      C
it's perfect in my mind


C  G#  C  G#

C
no one needs to save me
G#
I'm already saved
C
no one needs to save me
G#
I'm already saved


Chorus:

F    G#        C 
everything is just fine
F    G#        C
everything is just fine
F       G#     C
so long as I'm by your side
F            G#      C
it's perfect in my mind
F            G#      C
it's perfect in my mind
F            G#      C
it's perfect in my mind
Tap to rate this tab
# A B C D E F G H I J K L M N O P Q R S T U V W X Y Z