Song name
# A B C D E F G H I J K L M N O P Q R S T U V W X Y Z

Misc Unsigned Bands - Dirty Liar - The Crowd tab

Tuning: Standard (EADGBe)

Intro, Guitar 1:
e|--------------------------------------------------------------------|
B|--------------------------------------------------------------------|
G|--------------------------------------------------------------------|
D|-6-6-6-6-6-6-6-6--8-8-8-8--10-10-10-10------------------------------|
A|-x-x-x-x-x-x-x-x--x-x-x-x-—x-—x--x--x-------------------------------|
E|-4-4-4-4-4-4-4-4—-6-6-6-6--8--8--8--8-------x4----------------------|

Intro, Guitar 2:
e|--------------------------------------------------------------------|
B|--------------------------------------------------------------------|
G|--------------------------------------------------------------------|
D|--------------------------------------------------------------------|
A|-3---------------3----------------3----------------3----------------|
E|-1---------------1----------------1----------------1----------------|

Verse, Guitar 1:
e|--------------------------------------------------------------------|
B|--------------------------------------------------------------------|
G|--------------------------------------------------------------------|
D|-6-6-6-6-6-6-6-6--8-8-8-8-8-8-8-8-—1010101010101010--8-8-8-8-8-8-8-8|
A|-x-x-x-x-x-x-x-x--x-x-x-x-x-x-x-x—-x-x-x-x-x-x-x-x—--x-x-x-x-x-x-x-x|
E|-4-4-4-4-4-4-4-4--6-6-6-6-6-6-6-6--8-8-8-8-8-8-8-8—--6-6-6-6-6-6-6-6| x2

Verse Cont’d:
e|--------------------------------------------------------------------|
B|--------------------------------------------------------------------|
G|--------------------------------------------------------------------|
D|-6-6-6--6-6-6--8-8-8--8-8-8--10-10-10--10-10-10--8-8-8--8-8-8-------|
A|-x-x-x--x-x-x--x-x-x--x-x-x--x--x--x---x--x--x---x-x-x--x-x-x-------|
E|-4-4-4--4-4-4--6-6-6--6-6-6-—8--8--8---8--8--8---6-6-6--6-6-6-------|x2

Chorus, Guitar 1:
e|--------------------------------------------------------------------|
B|--------------------------------------------------------------------|
G|--------------------------------------------------------------------|
D|-6--8-8-8-8-8-8-8-8-8-8-8-8-8-8-8-—10101010101010101010101010101010-|
A|-x--x-x-x-x-x-x-x-x-x-x-x-x-x-x-x—-x-x-x-x-x-x-x-x-x-x-x-x-x-x-x-x--|
E|-4--6-6-6-6-6-6-6-6-6-6-6-6-6-6-6--8-8-8-8-8-8-8-8-8-8-8-8-8-8-8-8--|

e|--------------------------------------------------------------------|
B|--------------------------------------------------------------------|
G|--------------------------------------------------------------------|
D|--6-6-6-6-6-6-6-6-6-6-6-6-6-6-6--5-5-5-5-5-5-5-5-5-5-5-5-5-5-5------|
A|--x-x-x-x-x-x-x-x-x-x-x-x-x-x-x--x-x-x-x-x-x-x-x-x-x-x-x-x-x-x------|
E|--4-4-4-4-4-4-4-4-4-4-4-4-4-4-4—-3-3-3-3-3-3-3-3-3-3-3-3-3-3-3------|

e|--------------------------------------------------------------------|
B|--------------------------------------------------------------------|
G|--------------------------------------------------------------------|
D|--6-6-6-6-6-6-6-6-6-6-6-6-6-6-6--8-8-8-8-8-8-8-8-8-8-8-8-8-8-8—-----|
A|--x-x-x-x-x-x-x-x-x-x-x-x-x-x-x--x-x-x-x-x-x-x-x-x-x-x-x-x-x-x------|
E|--4-4-4-4-4-4-4-4-4-4-4-4-4-4-4--6-6-6-6-6-6-6-6-6-6-6-6-6-6-6------|

e|--------------------------------------------------------------------|
B|--------------------------------------------------------------------|
G|--------------------------------------------------------------------|
D|-1010101010101010-66666666666666-555555555555555--------------------|
A|-xxxxxxxxxxxxxxxx-xxxxxxxxxxxxxx-xxxxxxxxxxxxxxx--------------------|
E|-8888888888888888-44444444444444-333333333333333--------------------|


| /  slide up
| \  slide down
| h  hammer-on
| p  pull-off
| ~  vibrato
| +  harmonic
| x  Mute note
=======================================================================
Tap to rate this tab
 
# A B C D E F G H I J K L M N O P Q R S T U V W X Y Z