Song name
# A B C D E F G H I J K L M N O P Q R S T U V W X Y Z

Misc Unsigned Bands - Prisoners Of Sorrow - Broken tab

                        Broken Guitar Tab (3:30)
         Riff#1---(X#4)
|1|-------------------------------------------------------------------------|
|2|-------------------------------------------------------------------------|
|3|-------------------------------------------------------------------------|
|4|----------5(X#4)------4-----4----4----4----------------------------------|
|5|--------3----------2-------2----2----2-----------------------------------|
|6|-(X#4)-0---------0--------0----3----3------------------------------------|


             Chorus(X#4)
|1|-------------------------------------------------------------------------|
|2|-------------------------------------------------------------------------|
|3|-------------------------------------------------------------------------|
|4|-5-5----4---4-4-4-4-4-4-4------------------------------------------------|
|5|-3-3----2---2-2-2-2-2-2-2------------------------------------------------|
|6|----0-0-0---0-0-0-3-3-3-3------------------------------------------------|


              Riff#2(X#2)
|1|-------------------------------------------------------------------------|
|2|-------------------------------------------------------------------------|
|3|-------------------------------------------------------------------------|
|4|---------------2(X#6)-2(X#6)--2---2--------------------------------------|
|5|-2(X#6)-2(X#6)-0------3-------3---0---2---2--5--7--9---9--7--5--2--------|
|6|-0------3-----------------------------3---0--3--5--7---7--5--3--0--------|

                     Chorus(X#5)
|1|-------------------------------------------------------------------------|
|2|-------------------------------------------------------------------------|
|3|-------------------------------------------------------------------------|
|4|-5-5----4---4-4-4-4-4-4-4------------------------------------------------|
|5|-3-3----2---2-2-2-2-2-2-2------------------------------------------------|
|6|----0-0-0---0-0-0-3-3-3-3------------------------------------------------|


    H= Hammer on
    H-= Hammer Off
    $= Slide
    (X#)== that riff that many times
Tap to rate this tab
 
# A B C D E F G H I J K L M N O P Q R S T U V W X Y Z