Song name
# A B C D E F G H I J K L M N O P Q R S T U V W X Y Z

Misc Unsigned Bands - Prisoners Of Sorrow - Rage tab

                 Rage
          Verse 1  Main Riff (pt1) Repeat Vs. 4 times


|1|-----------------------------------------------------------------------||
|2|-----------------------------------------------------------------------||
|3|-----------------------------------------------------------------------||
|4|----------------------------------------2-3----------------------------||
|5|-----------------------------------------------------------------------||
|6|-0p-0p-0-0p-0p-0-0p-0p-0-0p-0p-0-0p-0p---------------------------------||


           Verse 2 Main riff (pt2) Repeat Vs. 4 times

|1|-----------------------------------------------------------------------||
|2|-----------------------------------------------------------------------||
|3|-----------------------------------------------------------------------||
|4|----------------------------------------2-3----------------------------||
|5|-------5-------3-------2-------0---------------------------------------||
|6|-0p-0p---0p-0p---0p-0p---0p-0p---0p-0p---------------------------------||


                  Break Down Repeat 4 times

|1|-----------------------------------------------------------------------||
|2|-----------------------------------------------------------------------||
|3|-----------------------------------------------------------------------||
|4|-----------------------------------------------------------------------||
|5|-2-------------------------------2----------2---------3$-5-------------||
|6|-0-0p-0p-0p-0p-0p-0p-0p-0p-0p-0p-0-0p-0p-0p-0-0p(x10)-3$-5-------------||


                   Verse 1  Main Riff (pt1) Repeat Vs. 4 times


|1|-----------------------------------------------------------------------||
|2|-----------------------------------------------------------------------||
|3|-----------------------------------------------------------------------||
|4|----------------------------------------2-3----------------------------||
|5|-----------------------------------------------------------------------||
|6|-0p-0p-0-0p-0p-0-0p-0p-0-0p-0p-0-0p-0p---------------------------------||


           Verse 2 Main riff (pt2) Repeat Vs. 4 times

|1|-----------------------------------------------------------------------||
|2|-----------------------------------------------------------------------||
|3|-----------------------------------------------------------------------||
|4|----------------------------------------2-3----------------------------||
|5|-------5-------3-------2-------0---------------------------------------||
|6|-0p-0p---0p-0p---0p-0p---0p-0p---0p-0p---------------------------------||
                    


          (EV)   Ending Verse with solo play 4 times


|1|-----------------------------------------------------------------------||
|2|-----------------------------------------------------------------------||
|3|-----------------------------------------------------------------------||
|4|-----------------------------------------------------------------------||
|5|-2-2p(X14)--5(X7)---4(X7)--2-------------------------------------------||
|6|-0-0p(X14)--3(X7)---2(X7)--0-------------------------------------------||

    

            solo(wait until EV is played once then begin solo)


|1|-----------------------------------------------------------------------||
|2|-----------------------------------------------------------------------||
|3|-9-10-12(X9)-12x3-15X3-17x3-19x3-21x3--21^x3--(9h13-T15)---------------||
|4|-----------------------------------------------------------------------||
|5|----------------------------------------------------------2------------||
|6|----------------------------------------------------------0------------||


(X#)= That riff/fret that many times
 ^= Bend up/down (either or)
 T= Tap
 P= Palm Mute
 $= Slide     
              This song is all alternate picking

Tap to rate this tab
# A B C D E F G H I J K L M N O P Q R S T U V W X Y Z