Song name
# A B C D E F G H I J K L M N O P Q R S T U V W X Y Z

Misc Unsigned Bands - Nasri - I Promise You Forever tab

hello everyone, my name is Tony. This is only an intro to the song "i promise you 
forever." I hope you enjoy it

/ => slide up
\ => slide down

E--10/12--10--8-----8--------------------]
B---------------12-----10\8--5\3---------]
G----------------------------------------]
D----------------------------------------]
A----------------------------------------]
E----------------------------------------]

E--8--10--10/12--10--8------8------------]
B-----------------------12-----10\8--5\3-]
G----------------------------------------]
D----------------------------------------]
A----------------------------------------]
E----------------------------------------]
Tap to rate this tab
# A B C D E F G H I J K L M N O P Q R S T U V W X Y Z