Song name
# A B C D E F G H I J K L M N O P Q R S T U V W X Y Z

Misc Unsigned Bands - The Growlers - Old Cold River tab

                          "Old Cold River"
                                by
                           Los Growlers

        
        Actual song: http://www.youtube.com/watch?v=ciA5JKwwYW0
        
        My Cover: http://www.youtube.com/watch?v=XhQafHu0YEg

INTRO CHORDS:
e|---8----8-7--8----8--8-x-x--11--11-11-11-x-x--8--8-----|
B|---9----9-8--9----9--9-x-x--11--11-11-11-x-x--8--8-----|
G|--10---10-9-10---10-10-x-x--12--12-12-12-x-x--9--9-----| (Repeat twice.)
D|-------------------------------------------------------|
A|-------------------------------------------------------|
E|-------------------------------------------------------|


VERSE RIFF:
e|-------------------------------------------------------|
B|----------------9-11b-9-11b-11-9-11-9------------------|
G|-10--10-9--9-10-----------------------10-10--10-9-9----|
D|-------------------------------------------------------| 
A|-------------------------------------------------------|
E|-------------------------------------------------------|

e|----------------------------------------------------------|
B|----------------------------------------------------------|
G|-10--10-9--9-8--8-11-8-7--7-7--6-6-9-6-5-5-3-3-1-3/5-5----|
D|----------------------------------------------------------| 
A|----------------------------------------------------------|
E|----------------------------------------------------------|

CHORUS 1:
e|--8--8--8--8-------------(4)(4)(4)---|
B|--9--9--9--9---6-6-6---4--4--4--4----|
G|-10-10-10-10---6-6-6---5--5--5--5----|
D|---------------8-8-8---6--6--6--6----| 
A|---------------8-8-8---6--6--6--6----|
E|-------------------------------------|

e|--8--8--8--8--------------------------------------------|
B|--9--9--9--9--------------------------------------------|
G|-10-10-10-10--------------------------------------------|
D|--------------------------3--3-1---1--1-3-1---1/3-------| 
A|---------------3-4-3----3--------3----------3-----3-----|
E|----------------------1---------------------------------|

CHORUS 2:
e|--8--8--8--8-------------(4)(4)(4)---|
B|--9--9--9--9---6-6-6---4--4--4--4----|
G|-10-10-10-10---6-6-6---5--5--5--5----|
D|---------------8-8-8---6--6--6--6----| 
A|---------------8-8-8---6--6--6--6----|
E|-------------------------------------|

e|--8--8--8--8--------------------------------------------|
B|--9--9--9--9--------------------------------------------|
G|-10-10-10-10--------------------------------------------|
D|--------------------------3--3-1---1--1-3-1---1/3-------| 
A|---------------3-4-3----3--------3----------3-----3-----|
E|----------------------1---------------------------------|

"They can't save me..."
e|-13--13--13----11---11-11-11--8-8--8--8-8-8-8--6--8-8--------|
B|-13--13--13----11---11-11-11--8-8--8--8-8-8-8--6--8-8--------|
G|-14--14--14----12---12-12-12--9-9--9--9-9-9-9--7--9-9--------|
D|-15--15--15----13---13-13-13---------------------------------| 
A|-------------------------------------------------------------|
E|-------------------------------------------------------------|


BRIDGE:
(I'm not so sure what chords to play, so I kinda just improvise this part.
If you can figure out the chords, then right on.)
e|--------------------------------------------------|
B|-6-6-4---4-6--6-4---4---4-6-6-4-6-4--4-6-4-6-4----|
G|-------5----------5---5------------5-----------5--|
D|--------------------------------------------------| 
A|--------------------------------------------------|
E|--------------------------------------------------|


Listen to the song to figure out when to play what parts.
Well thats about it, if you have any questions feel free to ask.
Tap to rate this tab
 
# A B C D E F G H I J K L M N O P Q R S T U V W X Y Z