Song name
# A B C D E F G H I J K L M N O P Q R S T U V W X Y Z

Misc Unsigned Bands - Rose Mcgowan - Two Against The World tab

TWO AGAINST THE WORLD (from the soundtrack of Planet Terror)

GUITAR 1

Part 1.

E----------------------------------------------|
B----4---4-4----4---4-4----4---4-4----3---3-3--|
C----5---5-5----5---5-5----5---5-5----4---4-4--|
D----------------------------------------------|   X11 and then fade
A--3---3------3---3----------------------------|
E------------------------4---4------3---3------|


Part 2.

E----3---3-3----3---3-3----4---4-4----3---3-3--|
B----4---4-4----4---4-4----4---4-4----3---3-3--|
G--5---5------5---5------5---5------4---4------|    X3 and then slow down for
D----------------------------------------------|       the ending
A----------------------------------------------|
E----------------------------------------------|

E----------------------------------------------|
B----------------------------------------------|
G----------------------------------------------|
D----------------------------------------------|
A--/6----5----3----2-----5-----2-----3---------|
E----------------------------------------------|


GUITAR 2
A second guitar plays some small variations on the theme, you'll have to listen to te 
to  get the rhytm right, but these are the variations in chronological order:

For part 1:

E------------------------------------------------|
B------------------------------------------------|
G------------------------------------------------|
D------------------------------------------------|
A--3--5--3--2--3-----------3---------2----3------|
E------------------------------4---3-------------|

E----------------|
B----------------|
G----------------|
D--0--0----------|
A--------3--2----|
E----------------|

E-----------|
B-----------|
G--0-1------|
D-------3---|
A-----------|
E-----------|

E--------------------------------------|
B--1--3--1-----1----------------1------|
G-----------4-----------1---4----------|
D--------------------------------------|
A--------------------------------------|
E--------------------------------------|

E-------1--------------1-------|
B---1------1-------0------0----|
G-1---1------1---0---0------0--|
D------------------------------|  X2
A------------------------------|
E------------------------------|

E--------------------------------|
B--------------------------------|
G--------------------------------|
D-------3----------------3-------|
A---3------3---------2------2----|
E-4---4------4-----3---3------3--|

E----------------|
B--1--3--1----1--|
G-----------4----|
D----------------|   Aaaahhh hmmmmmmm....
A----------------|
E----------------|


For part 2:

E----------------|
B--1--3--1----1--|
G-----------4----|
D----------------|
A----------------|
E----------------|

E--8--10--8--7--8--|
B------------------|
G------------------|
D------------------|
A------------------|
E------------------|

E--8--10--8--7--8-------------7----8----|
B---------------------9---8-------------|
G---------------------------------------|
D---------------------------------------|
A---------------------------------------|
E---------------------------------------|

And now moan, moan, moan!
Tap to rate this tab
# A B C D E F G H I J K L M N O P Q R S T U V W X Y Z