Song name
# A B C D E F G H I J K L M N O P Q R S T U V W X Y Z

Misc Unsigned Bands - Jatin-lalit - Tujhe Dekha - Dilwale Dulhaniya Le Jayenge tab

THIS IS I BELIEVE IS THE MOST EXACT I COULD GET...PLS FEEL FREE TO COMMENT..

E---000---7-5-7-33-55-8-777777--|
B-------------------------------|
G-------------------------------|
D-------------------------------|
A-------------------------------|
E-------------------------------|

E---000---7-5-7-33-55-3-222222--|
B-------------------------------|
G-------------------------------|
D-------------------------------|
A-------------------------------|
E-------------------------------|

E---000---7-5-7-33-55-10-777777-|
B-------------------------------|
G-------------------------------|
D-------------------------------|
A-------------------------------|
E-------------------------------|

E---000---7-5-7-33-55-3-222222--|
B-------------------------------|
G-------------------------------|
D-------------------------------|
A-------------------------------|
E-------------------------------|

E--0-2---00-2---00-3-222222-----|
B------3------3-----------------|
G-------------------------------|
D-------------------------------|
A-------------------------------|
E-------------------------------|

E--0-2---00-2---3-2-000000------|
B------3------3-----------------|
G-------------------------------|
D-------------------------------|
A-------------------------------|
E-------------------------------|

E--0-2---00-2---00-3-222222-----|
B------3------3-----------------|
G-------------------------------|
D-------------------------------|
A-------------------------------|
E-------------------------------|

E---5-7-9-12-9-7-5-7-9-55-00----|
B-------------------------------|
G-------------------------------|
D-------------------------------|
A-------------------------------|
E-------------------------------|
Tap to rate this tab
# A B C D E F G H I J K L M N O P Q R S T U V W X Y Z