Song name
# A B C D E F G H I J K L M N O P Q R S T U V W X Y Z

Misc Unsigned Bands - Gentlemen - Its A Cryin Shame tab

-------------------------------------------------------------------------------
			     Its A Cryin Shame - Gentlemen
-------------------------------------------------------------------------------
Tabbed by: Görm
Email: gorm_92@hotmail.com

Tuning: standard

e|--------------------------------------------------------------------------|
B|--------------------------------------------------------------------------|
G|----------7------5-------------------77-----55----------------------------|
D|---7------7------5------5-----77-----77-3-4-55-2-3-55---------------------|
A|---7------5------3------5-----77-3-4-55-----33-----55---------------------|
E|---5--------------------3-----55-------------------33---------------------|

thats the intro
Tap to rate this tab
 
# A B C D E F G H I J K L M N O P Q R S T U V W X Y Z