Song name
# A B C D E F G H I J K L M N O P Q R S T U V W X Y Z

Misc Unsigned Bands - Condemned - Sandy chords

e|--------------------------------------------------------------------------|
B|--------------------------------------------------------------------------|
G|--------------------------------------------------------------------------|
D|-5-5-----------------5-5-----------------5-5-3-----------5-5-3------------|
A|-3-3-5-5--3-33-5-55--3-3-5-5--3-33-5-55--3-3-1-5-555555--3-3-1-5-555555---|
E|-----3-3--1-11-3-33------3-3--1-11-3-33--------3-333333--------3-333333---|

e|--------------------------------------------------------------------------|
B|--------------------------------------------------------------------------|
G|--------------------------------------------------------------------------|
D|-----33-5-555555------33-5-55-5--5----------------------------------------|
A|-3-3-11-3-333333--3-3-11-3-33-3--3----------------------------------------|
E|-1-1--------------1-1-----------------------------------------------------|

This is a song i wrote on my own time when I was bored if you like it thanks for the 
I just wrote it for my girl friend. So I
hope you do like it.
Tap to rate this tab
 
# A B C D E F G H I J K L M N O P Q R S T U V W X Y Z