Song name
# A B C D E F G H I J K L M N O P Q R S T U V W X Y Z

Misc Unsigned Bands - Powerage - Die On Me tab

Die on Me, by: Powerage
standard tuning
key:
(0)=notes heard with delay effects
x\x/+pick slides
~~~~~=whammy
^=bend


   gtr1    Intro    this is done 8 times. on the 5th, rythm 2 joins
e|------------------------------------------------------|in till
b|0-8-7-0-7-5-0-5-3-0-2-4-1-----------------------------|rythm 2
g|------------------------------------------------------|
d|------------------------------------------------------|
a|------------------------------------------------------|
e|------------------------------------------------------|

   gtr2 this is continued until gtr 1 finishes  rthym 2
e|------------------------------------------------------|
b|------------------------------------------------------|
g|-------31313131313------------------------------------|
d|-------31313131313------------------------------------|
a|x/x/x/x-----------------------------------------------|
e|x/x/x/x-----------------------------------------------|

gtr1&2
e|--------------------|
b|--------------------|
g|--------------------|
d|7---77777777777-9---|
a|7---77777777777-9---|
e|5---55555555555-7---|

      gtr1&2            ~~~~~
e|14^----1413-14----------------------|
b|--------------14131512--------------|
g|------------------------------------|
d|------------------------------------|
a|------------------------------------|
e|--------------------------x\x\x\x\x-|

   rthym3        Verse1  gtr 1&2 the lyrics fit into one set 
e|---------------------------------------|rthym 3 same with
b|---------------------------------------|rthym 4
g|2-2-2-4-4-4-6-6-6----------------------|
d|2x2x2-3x3x3-5x5x5-3-2-0-3-2-0-3h4------|
a|0x0x0-0x0x0-0x0x0-3-2-0-3-2-0-3h4------|
e|---------------------------------------|
 Hey hey you, have you heard the news
 you either die with me or sing the blues 

     rthym4         Verse2
e|---------------------------------------|
b|---------------------------------------|
g|2-2-2-4-4-4-6-6-6----------------------|
d|2x2x2-3x3x3-5x5x5-3-2-0-3-2-0-3h4------|
a|0x0x0-0x0x0-0x0x0-3-2-0-3-2-0-3h4------|
e|---------------------------------------|
 Hey hey you, you'd better decide
 you either come with me or step aside

  rthym5         Chorus lyrics should fit with one rthym5
e|---------------------------------------|do it twice
b|---------------------------------------|
g|---------------------------------------|
d|99997--5554422-2-----------------------|
a|99997--5554422-2-----------------------|
e|77775--3332200-0-----------------------|
 ohh who would of knew, you go ahead and die on me!

      ~~      Solo                         ~~~~~~  ~~~~~
e|-----------------------------------141517----------------|
b|12^--------------------1514--141517--------------------13|
g|-----------1314--131416----16------------------12------14|
d|-------1416----16------------------------------11--------|
a|---------------------------------------------------------|
e|---------------------------------------------------------|

e|----1012------11-------17171717171717p1417171717171717p14|
b|--11----11--10--12---------------------------------------|
g|12--------10------11\0-----------------------------------|
d|---------------------------------------------------------|
a|---------------------------------------------------------|
e|---------------------------------------------------------|

e|17171717171717p1417171717171717p1417171717171717----------|
b|------------------------------------------------1717171717|
g|----------------------------------------------------------|
d|----------------------------------------------------------|
a|----------------------------------------------------------|
e|----------------------------------------------------------|

e|----------------------------------------------------------|
b|1717p1417171717171717p1417171717171717p1417171717171717p14|
g|----------------------------------------------------------|
d|----------------------------------------------------------|
a|----------------------------------------------------------|
e|----------------------------------------------------------|

e|----------------------------------------------------------|
b|17171717171717--------------------------------------------|
g|--------------16\0--87---12^^12^^12^^9977886677556644/9977|
d|------------------79--98/11--11--11-----------------------|
a|----------------------------------------------------------|
e|----------------------------------------------------------|

e|----------------------------------------------12\\\\\\-------12--|
b|--------------------------------------------------------23-21---2|
g|886677556644/9977886677556644/9977886677556644--------23--1----3-|
d|-----------------------------------------------------------------|
a|-----------------------------------------------------------------|
e|-----------------------------------------------------------------|

                 INTERLUDE GTR1
e|-----------------------------------------------------------|
b|-----------------------------------------------------------|
g|-----------------------------------------------------------|
d|-----------------------------------------------------------|
a|-----------------------------------------------------------|
e|3(3)-2(2)-1(1)-0(0)-33(33)-22(22)-11(11)-00(00)-333(333)-22|
                                                 Ohhhhhhhhhhh

e|------------------------------------------------------------|
b|------------------------------------------------------------|
g|------------------------------------------------------------|
d|------------------------------------------------------------|
a|------------------------------------------------------------|
e|2(222)-111(111)-000(000)-333(333)-222(222)-111(111)-000(000)|
 hhhhhhhhhhhhhhhhhhhhhhhhhhhhhhhhhhhhhhhhhhhhhhhhhhhhhhhhhhhh!
                   End Solo
e|-7^^---------------------------------------------------------|
b|-6-----------------------------------------------------------|
g|----14141414141414p1214141414141414p1214141414141414p12141414|
d|2------------------------------------------------------------|
a|2------------------------------------------------------------|
e|0------------------------------------------------------------|
                                          ~~~~~~~~~~~~~~~~~~~
e|-------------------------------------------------------------|
b|-------------------------hold--------------------------------|
g|14141414p1214141414141414^--------------0--------------------|
d|----------------------------------------0--------------------|
a|-------------------------------------------------------------|
e|-------------------------------------------------------------|

e|-------------------------------------------------------------|
b|-------------------------------------------------------------|
g|9--8--7--8--7--6--7-6-5-6-5-4-543432321210-------------------|
d|------------------------------------------210----------------|
a|---------------------------------------------210-------------|
e|------------------------------------------------3210divebomb-|

ORDER:
1 INTRO
2 VERSE
3 VERSE
4 CHORUS
5 SOLO  + WHILE SOLO, GTR2 DOES CHORUS
6 INTERLUDE
7 CHORUS
8 CHORUS
9 END SOLO  + WHILE END SOLO, GTR2 DOES CHORUS
---------------
GTR1:MATT G.
GTR2:HARLEY L.
COMPOSER:MATT G.
Tap to rate this tab
# A B C D E F G H I J K L M N O P Q R S T U V W X Y Z