Song name
# A B C D E F G H I J K L M N O P Q R S T U V W X Y Z

Misc Unsigned Bands - Nasri - I Promise You Forever tab

hello guys, it's Tony here. i decided to upload 2nd version of my tab that was
edited by my friend, "Kyle"(the one and only)LOL.

GUITAR 1
E--10/12--10--8-----8--------------------]
B---------------12-----10\8--5\3---------]
G----------------------------------------]
D----------------------------------------]
A----------------------------------------]
E----------------------------------------]

E--8--10--10/12--10--8------8------------]
B-----------------------12-----10\8--5\3-]
G----------------------------------------]
D----------------------------------------]
A----------------------------------------]
E----------------------------------------]


GUITAR 2
0:05
E--0---3-----3-----------|
B--2---3-----3-----------|
G--2---0-----4-----------|
D--2---0-----5-----------|
A--0---2-----------------|
E------3-----------------|
Tap to rate this tab
# A B C D E F G H I J K L M N O P Q R S T U V W X Y Z