Song name
# A B C D E F G H I J K L M N O P Q R S T U V W X Y Z

Misc Unsigned Bands - Backwards Alphabet - Going Down tab

lead in with quarter down slide
Intro  x2
Verse  x4
Chorus x1
intro  x1
verse  x4
Chorus x1
Bridge x2
Solo   x1
Verse  x2
End    x1




Intro 
e|-----------------|-----------------|-----------------|-----------------|
B|-----------------|-----------------|-----------------|-----------------|
G|-----------------|-----------------|-----------------|-----------------|
D|-0-0----07-7----7|-0-0----07-7----7|-0-0----07-7----7|-5-5----55-4-2-4-|
A|-0-0----07-7----7|-0-0----07-7----7|-0-0----07-7----7|-5-5----55-4-2-4-|
D|-0-0----07-7----7|-0-0----07-7----7|-0-0----07-7----7|-5-5----55-4-2-4-|
           h        p        h        p        h       p        

Verse
e|-----------------|-----------------|-----------------|-----------------|
B|-----------------|-----------------|-----------------|-----------------|
G|-----------------|-----------------|-----------------|-----------------|
D|-0-0-0-0-7-7-7-7-|-5-5-5-5---7---7-|-0-0-0-0-7-7-7-7-|-5-5-5-5-5-4-2-4-|
A|-0-0-0-0-7-7-7-7-|-5-5-5-5---7---7-|-0-0-0-0-7-7-7-7-|-5-5-5-5-5-4-2-4-|
D|-0-0-0-0-7-7-7-7-|-5-5-5-5---7---7-|-0-0-0-0-7-7-7-7-|-5-5-5-5-5-4-2-4-|
  [--------- P.M. ----------]  >   >  [---------- P.M. ---------]


Chorus
e|-----------------|-----------------|-----------------|-----------------|
B|-----------------|-----------------|-----------------|-----------------|
G|-----------------|-----------------|-----------------|-----------------|
D|-0-0-xxxx7-7-xxxx|-5-5-xxxx7-7-xxxx|-0-0-xxxx7-7 xxxx|-5-5-xxxx7-7-xxxx|
A|-0-0-xxxx7-7-xxxx|-5-5-xxxx7-7-xxxx|-0-0-xxxx7-7 xxxx|-5-5-xxxx7-7-xxxx|
D|-0-0-xxxx7-7-xxxx|-5-5-xxxx7-7-xxxx|-0-0-xxxx7-7 xxxx|-5-5-xxxx7-7-xxxx|

e|-----------------|-----------------|-----------------|-----------------|
B|-----------------|-----------------|-----------------|-----------------|
G|-----------------|-----------------|-----------------|-----------------|
D|-0-0-xxxx7-7-xxxx|-5-5-xxxx7-7-xxxx|-0-0-xxxx7-7 xxxx|-5-5-xxxx5-4-2-4-|
A|-0-0-xxxx7-7-xxxx|-5-5-xxxx7-7-xxxx|-0-0-xxxx7-7 xxxx|-5-5-xxxx5-4-2-4-|
D|-0-0-xxxx7-7-xxxx|-5-5-xxxx7-7-xxxx|-0-0-xxxx7-7 xxxx|-5-5-xxxx5-4-2-4-|


Bridge
e|-----------------|-----------------|-----------------|-----------------|
B|-----------------|-----------------|-----------------|-----------------|
G|-----------------|-----------------|-----------------|-----------------|
D|-9-9-9-9-9-9-9-9-|-1111111111111111|-1111119-9-9-9-9-|-7-7-7-9-9-9-9-9-|
A|-9-9-9-9-9-9-9-9-|-1111111111111111|-1212121010101010|-9-9-9-1010101010|
D|-9-9-9-9-9-9-9-9-|-1111111111111111|-----------------|-----------------|
                                       >     >     >     >     >     >


Solo
e|-----------------|-----------------|-----------------|-----------------|
B|-----------------|-----------------|-----------------|-----------------|
G|-----7-----------|-----------4-----|-----7-----------|-----------------|
D|-------7---4-----|-5~------5---7-4~|-------7---4-----|-5~--5~--5-4-----|
A|---------------5-|-----------------|---------------5-|-------------7-5-|
D|-----------------|-----------------|-----------------|-----------------|

e|-----------------|-----------------|-----------------|-----------------|
B|-----------------|-----------------|-----------------|-----------------|
G|-----7-----------|-----------4-----|-----------------|-----------------|
D|-------7---4-----|-5~------5---7-4~|~~~~~~~~~~~~~~~~~|~~~~~~~~~~~~~~~~\|
A|---------------5-|-----------------|-----------------|-----------------|
D|-----------------|-----------------|-----------------|-----------------|



End
e|-----------------|
B|-----------------|
G|-----------------|
D|-0-0-------------|
A|-0-0-------------|
D|-0-0-------------|
   > >
Tap to rate this tab
# A B C D E F G H I J K L M N O P Q R S T U V W X Y Z