Song name
# A B C D E F G H I J K L M N O P Q R S T U V W X Y Z

Misc Unsigned Bands - Striction - Turns Out Right tab

              Striction
           Turns Out Right
     Music And Lyrics by T.Hunt and M.Thompson

INTRO!  (X12)
E|----------------------|
B|----------------------|
G|----------------------|
D|----------------------|
A|----1-2-3-2-----------|
E|------------2-3-2-----|

VERSE A!
   (X2)
E|--------------------------------|
B|--------------------------------|
G|--------------------------------|
D|------------------4-------------|
A|-2-----2-----2----2-5-5---------|
E|-0-000-0-000-0-000--3-3-3h4p3p0-|
"Building a machine in the whites"
"Were enjoying the day like kids flying kites"

VERSE B!
E|--------------------------------|
B|--------------------------------|
G|------------------4-------------|
D|-2-----2-----2----2-5-5---------|
A|-0-000-0-000-0-000--3-3-3h4p3p0-|
E|--------------------------------|
"Now it's time for education"
"She sings a song to my reanimation"

-Verse A
"Strangers walk on to the stairway"
"Blasted a tune that made me grey"

-Verse B
"Ditched my education for a walk down the street"
"Guy ran off to an unusual property"

PRE-CHORUS
E|-------------------------------------------------------------------------|
B|-------------------------------------------------------------------------|
G|-------------------------------------------------------------------------|
D|-------------------------------------------------------------------------|
A|-----------------5-----------------4-----------------5-------------------|
E|-0-0-0-2p0-0-0-0-3-0-0-0-2p0-0-0-0-2-0-0-0-2p0-0-0-0-3-0-0-0-2p0-0-0-0-0-|
"Spaced out, took a seat, we'll keep the fun going yeah, lets shout and"

END OF PRE-CHORUS
E|-------------|
B|-------------|
G|-------------|
D|-----5-6-----|
A|-8-7-3-4-6-5-|
E|-6-5-----4-3-|
"Scream"

CHORUS!      (X8)
E|-------------------------------|
B|-------------------------------|
G|-------------------------------|
D|-------------------------------|
A|---------4-----5-------------2-|
E|---0-0-0-2-0-0-3-0-0-0-2h3p2p0-|
"From start to finish, it turns out right"
"With notes that kill, you're in the light"
"When it's all said and done"
"We'll have time to fuck and run"

-lead=Solo Laing

-rhythm= Verse A

-Verse A
"Crakin' up on the deck"
"Many faces appear over the fence"

-Verse B
"As we make a wreck"
"Leaving scratches and dent"

-Verse A
"In the house to the bottom"
"On the comforter thats where we see them"

-Pre-Chorus
"Spaced out, took a seat, we'll keep the fun going yeah, lets shout and"

-End Of Pre-Chorus
"Scream"

-Chorus
"From start to finish, it turns out right"
"With notes that kill, you're in the light"
"When it's all said and done"
"We'll have time to fuck and run"

BRIDGE!   (X14)
E|------------|
B|------------|
G|------------|
D|----------4-|
A|-----2----2-|
E|-1-3-0-1-3--|
"We see a lady who's lost and confused"
"In comes an old friend, and to her it's nothing new"
"She lost her mind and grabbed a hold"
"Now shes on top, my body's cold"

DURING SOLO
E|------------------------------|
B|------------------------------|
G|------------------------------|
D|----------------------2h3p0---|
A|-5-5555-3-3333-2-2222---------|
E|-3-3333-1-1111-0-0000---------|

- SOLO THOMPSON
Outro       (X5)
E|----------------------|
B|----------------------|
G|----------------------|
D|----------------------|
A|----1-2-3-2-----------|
E|------------2-3-2-----|

E|-------------------------|
B|-------------------------|
G|-------------------------|
D|-------------------------|
A|--1--2--3--2---------2~~-|
E|-------------2---3---0~~-|
Tap to rate this tab
# A B C D E F G H I J K L M N O P Q R S T U V W X Y Z