Song name
# A B C D E F G H I J K L M N O P Q R S T U V W X Y Z

Misc Unsigned Bands - David Hutton - Dear Darling tab

********************************************************************
*                  DEAR DARLING - by David Hutton                  *
*                  ------------------------------                  *
*I wrote this song a few years ago, it has words too but the melody*
*       of the guitar for me, and many others, is beautiful.       *
*                               ENJOY                              *
********************************************************************

Standard Tuning: EADGBE
I've adding the fingering i use.

Melodic picking - let the notes ring
tempo: 105-115

 |       |       |       |        |       |       |       |        
|------------------------0-------|--------------------------------|
|--------1-------3---------------|--------1-------0-------1-------|
|----0-------0-------0-------0---|----0-------0-------0-------0---|
|--------------------------------|--------------------------------|
|3-------------------------------|2-------------------------------|
|--------------------------------|--------------------------------|
 3       1       4                2       1               1

 |       |       |       |        |       |       |       |        
|--------------------------------|--------------------------------|
|--------1-------3-------1-------|--------0---1---1-------0-------|
|----0-------0-------0-------0---|----0---------------------------|
|--------------------------------|--------------------------------|
|0-------------------------------|--------------------------------|
|--------------------------------|3-------------------------------|
         1       4       1        3           1   1

 |       |       |       |        |       |       |       |        
|--------------------------------|--------------------------------|
|--------1-------3-------1-------|--------1-------0-------1-------|
|----0-------0-------0-----------|----0-------0-------0-----------|
|--------------------------------|--------------------------------|
|3---------------------------3---|2---------------------------2---|
|--------------------------------|--------------------------------|
 3       1       4       1   3    2       1               1   2

 |       |       |       |        |       |       |       |        
|--------------------------------|--------------------------------|
|--------1-------3-------1-------|--------0---1---1-------0-------|
|----0-------0-------0-----------|----0---------------------------|
|--------------------------------|--------------------------------|
|0-------------------------------|--------------------------------|
|----------------------------0---|3-------------------------------|
         1       4       1        3           1   1

 |       |       |       |        |       |       |       |        
|--------------------------------|--------------------------------|
|--------0-----------1-----------|--------0-----------1-----------|
|--------0-----------0-----------|--------0-----------0-----------|
|--------------------------------|--------------------------------|
|3-----------3---3-----------3---|3-----------3---3-----------3---|
|--------------------------------|--------------------------------|
 3           3   3   1       3    3           3   1   1       3

 |       |       |       |        |       |       |       |        
|--------------------------------|--------------------------------|
|--------0-----------1-----------|--------0-----------1-----------|
|--------0-----------0-----------|--------0-----------0-----------|
|--------------------------------|--------------------------------|
|0-----------0---0-----------0---|0-----------0---0-----------0---|
|--------------------------------|--------------------------------|
                     1                                1

 |       |       |       |        |       |       |       |        
|--------------------------------|--------------------------------|
|--------0-----------1-----------|--------0-----------------------|
|--------0-----------0-----------|--------0-----------------------|
|--------------------------------|--------------------------------|
|--------------------------------|--------------------0---3---0---|
|1-----------1---1-----------1---|3-----------3---3---------------|
 1           1   1   3       1    3           3   3       3
(5(thumb)    5   5   1       5    3           3   3       3)alt

 |       |       |       |        |       |       |       |        
|--------------------------------|--------------------------------|
|--------0-----------1-----------|--------0-----------1-----------|
|--------0-----------0-----------|--------0-----------0-----------|
|--------------------------------|--------------------------------|
|3-----------3---3-----------3---|3-----------3---3-----------3---|
|--------------------------------|--------------------------------|
 3           3   3   1       3    3           3   3   1       3

 |       |       |       |        |       |       |       |        
|--------------------------------|--------------------------------|
|--------0-----------1-----------|--------3-----------3-------0---|
|--------0-----------0-----------|--------4-----------4-------0---|
|--------------------------------|------------------------0-------|
|2-----------2---2---------------|--------------------------------|
|--------------------------------|0---0-------0---0---------------|
 2           2   2   1                    1           1
                                          2           2

 |       |       |       |        |       |       |       |        
|------------------------0-------|--------------------------------|
|--------1-------3---------------|--------1-------0-------1-------|
|----0-------0-------0-----------|----0-------0-------0-----------|
|--------------------------------|--------------------------------|
|3---------------------------3---|2---------------------------2---|
|--------------------------------|--------------------------------|
 3       1       4           3    2       1               1   2

 |       |       |       |        |       |       |       |        
|--------------------------------|--------------------------------|
|--------1-------3-------1-------|--------0---1---1-------0-------|
|----0-------0-------0-------0---|----0---------------------------|
|--------------------------------|--------------------------------|
|0-------------------------------|--------------------------------|
|--------------------------------|3-------------------------------|
         1       4       1        3           1   1

 |       |       |       |        |       |       |       |        
|--------------------------------|--------------------------------|
|--------1-------3-------1-------|--------1-------0-------1-------|
|----0-------0-------0-----------|----0-------0-------0-----------|
|--------------------------------|--------------------------------|
|3---------------------------3---|2---------------------------2---|
|--------------------------------|--------------------------------|
 3       1       4       1   3    2       1               1   2

 |       |       |       |        |       |       |       |        
|--------------------------------|--------------------------------|-----0====
|--------1-------3-------1-------|--------0---1---1-------0-------|----1====
|----0-------0-------0-------0---|----0---------------------------|---0====
|--------------------------------|--------------------------------|--2====
|0-------------------------------|--------------------------------|-3====
|--------------------------------|3-------------------------------|0====
         1       4       1        3           1   1                 32 1
Tap to rate this tab
 
# A B C D E F G H I J K L M N O P Q R S T U V W X Y Z