Song name
# A B C D E F G H I J K L M N O P Q R S T U V W X Y Z

Misc Unsigned Bands - Deadly Premonition - Whistle Song tab

This is the guitar part to the awesome whistle song in Deadly Premonition. I'm only 
the chords, you'll have to figure out the timing and little transitions between chords just 
listening to it, but its fairly simple.

I know this isn't 100% accurate, but it sounds pretty damn close to the game.

e|-----------------------------------------------------------|
B|--3-3---5-5---5-5---3-3---3-3---5-5---5-5---3-5-7-3--------|
G|--4-4---6-6---5-5---4-4---4-4---6-6---5-5------------------|
D|--4-4---5-5---4-4---4-4---4-4---5-5---4-4---0-2-4-0--------|
A|--------4-4---3-3---5-5---------4-4---3-3------------------|
E|--3-3---------------------3-3------------------------------|


e|-----------------------------------------------------------|
B|--3-3---5-5---5-5---3-3---3-3---5-5---5-5---3-3------------|
G|--4-4---6-6---5-5---4-4---4-4---6-6---5-5---4-4------------|
D|--4-4---5-5---4-4---4-4---4-4---5-5---4-4---4-4------------|
A|--------4-4---3-3---5-5---------4-4---3-3------------------|
E|--3-3---------------------3-3---------------3-3------------|

e|-----------------------------------------------------------|
B|--3-3---5-5---5-5---3-3---3-3---5-5---5-5------------------|
G|--4-4---6-6---5-5---4-4---4-4---6-6---5-5---4-5-7-4--------|
D|--4-4---5-5---4-4---4-4---4-4---5-5---4-4------------------|
A|--------4-4---3-3---5-5---------4-4---3-3------------------|
E|--3-3---------------------3-3---------------3-5-7-3--------|

e|--------------------1-1---------------------1-3------------|
B|--5-5---4-4---3-3---3-3---1-1---5-5---3-3---3-3------------|
G|--5-5---5-5---4-4---------0-0---5-5---4-4---2--------------|
D|--------------------2-2---2-2---4-4---4-4---0--------------|
A|--3-3---3-3---2-2---------0-0---5-5------------------------|
E|--------------------------------------3-3-----3------------|


e|--------------------1-1------------------------------------|
B|--5-5---4-4---3-3---3-3---1-1---5-5------------------------|
G|--5-5---5-5---4-4---------0-0---5-5------------------------|
D|--------------------2-2---2-2---4-4------------------------|
A|--3-3---3-3---2-2---------0-0---5-5------------------------|
E|-----------------------------------------------------------|

repeat from the beginning
Tap to rate this tab
# A B C D E F G H I J K L M N O P Q R S T U V W X Y Z