Song name
# A B C D E F G H I J K L M N O P Q R S T U V W X Y Z

Misc Unsigned Bands - Isa Tk - Soy El Primero tab

Intro:

|---------------------------------------------------------|
|--10--10--10------10-10------------------10-10-----------|
|-----------------------11-9----9-9-11-9------------------|
|-----12--12---12------------12---------12----------------|
|---------------------------------------------------------|
|---------------------------------------------------------|


D              A          G    
Quiero que me digas como haras

D                  A         G       
para ser mejor que yo con la guitarra

Bm                  A            G         
y si canto mis canciones lo hago con el alma
Em                               A
y eso es algo que tu nunca entenderas

Sebas
D              A         G    
Quiero que me digas como haras
D                  A           G      
para ser mejor que yo en un escenario
Bm                      A            G            
cuando sepas que has perdido sera un poco extraño
Em                               A
pero es algo que algun dia aceptaras

A

A       D   A    G
Te digo hooooooo...
    
sabras lo que es perder (Sebas)
D    A    G
hoooooo...
  
y tu tienes mucho que aprender (Alex)
D   A   G  
hooooo...

G               Em                   A
sabes bien que soy el mejor, entre tu y yo
D             A G             
soy el primero, soy el primero
D             A G             
soy el primero, soy el primero


Se que ella me prefiere a mi
me lo dice con sus ojos al mirarme


Tu no sabes cuanto a hecho para enamorarme
no la puedo imaginar lejos de mi

Te digo hooooooo
sabras lo que es perder
hoooooo
y tu tienes mucho que aprender 
hoooooo

sabes bien que soy el mejor, entre tu y yo
soy el primero, soy el primero
soy el primero, soy el primero

Solo:
|--------------------------------------------------|
|-17-17-17-15-17b(x3)-17-19-20-22b-----------------|
|--------------------------------------------------|
|--------------------------------------------------|
|--------------------------------------------------|
|--------------------------------------------------|

|--------------------------------------------------|
|-17-17-17-15-17b(x3)17b-17-19-20-22b(sostienen)---|
|--------------------------------------------------|
|--------------------------------------------------|
|--------------------------------------------------|
|--------------------------------------------------|

Te digo hooooooo
sabras lo que es perder
hoooooo
y tu tienes mucho que aprender
hoooooo

sabes bien que soy el mejor, entre tu y yo
D
soy el primero, soy el primero
Soy el primero


Tabs por Best Day's © 2010
Cual quier duda (j26_s@hotmail.com) Disfruten xD
Tap to rate this tab
 
# A B C D E F G H I J K L M N O P Q R S T U V W X Y Z