Song name
# A B C D E F G H I J K L M N O P Q R S T U V W X Y Z

Misc Unsigned Bands - My Darkest Days - Every Lie tab

#----------------------------------PLEASE NOTE---------------------------------#
#This file is the author's own work and represents their interpretation of the #
#song. You may only use this file for private study, scholarship, or research. #
#------------------------------------------------------------------------------##

DEDICATED TO <3 BEN AND MACY <3

Gtr I (D A D G B E) - 'Untitled'
Gtr II (D A D G B E) - 'Untitled'
Gtr III (D A D G B E) - 'Untitled'

 INTRO
  Q=104
 4/4
  Gtr I
   Q.   H    +E      Q.    H     +E     Q.   H    +E      Q.    H     +E
|----------------|-------------------|----------------|--------------------|
|----------------|-------------------|----------------|--------------------|
|----------------|-------------------|----------------|--------------------|
|--0----3----(3)-|---8-----5-----(5)-|--0----3----(3)-|---8-----5-----(5)--|
|--0----3----(3)-|---8-----5-----(5)-|--0----3----(3)-|---8-----5-----(5)--|
|--0----3----(3)-|---8-----5-----(5)-|--0----3----(3)-|---8-----5-----(5)--|
|
| Gtr II
|  Q.   H    +E      Q.    H     +E     Q.   H    +E      Q.    H     +E
|----------------|-------------------|----------------|--------------------|
|-10----8----(8)-|-/11----10----(10)-|-10----8----(8)-|-/11----10----(10)--|
|----------------|-------------------|----------------|--------------------|
|----------------|-------------------|----------------|--------------------|
|----------------|-------------------|----------------|--------------------|
|----------------|-------------------|----------------|--------------------|


   VERSE 1 AND 2
    $
    Gtr III
    E E E Q  E Q    E E E Q  E Q    E E E Q  E Q    E E E Q  E Q
||----------------|---------------|---------------|-----------------||
||o---------------|---------------|---------------|----------------o||
||----------------|---------------|---------------|-----------------||
||------0------3--|-----8------5--|-----0------3--|-----8------5----||
||o---0------3----|---8------5----|---0------3----|---8------5-----o||
||--0-----3-------|-8-----5-------|-0-----3-------|-8-----5---------||


 PRE CHORUS
                      Gtrs I, II
   W           +H     q  q
|-----------|---------------|
|-----------|---------------|
|-10--------|-(10)----------|
|--8--------|--(8)----5--5--|
|--8--------|--(8)----5--5--|
|--8--------|--(8)----5--5--|


   CHORUS 1
                           To Coda
    Q.   H    +E    Q.   H    +E    3x
||----------------|-----------------||
||o---------------|----------------o||
||----------------|-----------------||
||--0----3----(3)-|-8----5----(5)---||
||o-0----3----(3)-|-8----5----(5)--o||
||--0----3----(3)-|-8----5----(5)---||


  E E E E E E E E    E  E  E  E  E E Q
|-----------------|---------------------|
|-----------------|---------------------|
|-----------------|-12-12-12-12-12------|
|-8-8-8-8-8-8-8-8-|-10-10-10-10-10------|
|-8-8-8-8-8-8-8-8-|-10-10-10-10-10------|
|-8-8-8-8-8-8-8-8-|-10-10-10-10-10------|


 INTERLUDE
  Gtr III
   E  E E Q  E Q         E  E E  Q  E Q
|--------------------|-----------------------|
|--------------------|-----------------------|
|--------------------|-----------------------|
|-------0------3-----|--------8-------5------|
|-----0------3-------|------8-------5--------|
|--0------3----------|---8-------5-----------|
|
| Gtr II
|  Q.     H      +E      Q.      H       +E
|--------------------|-----------------------|
|-10------8------(8)-|-/11------10------(10)-|
|--------------------|-----------------------|
|--------------------|-----------------------|
|--------------------|-----------------------|
|--------------------|-----------------------|


                                    D.S.
   E  E E Q  E Q         E  E E  Q  E Q
|--------------------|-----------------------|
|--------------------|-----------------------|
|--------------------|-----------------------|
|-------0------3-----|--------8-------5------|
|-----0------3-------|------8-------5--------|
|--0------3----------|---8-------5-----------|
|
|  Q.     H      +E      Q.      H       +E
|--------------------|-----------------------|
|-10------8------(8)-|-/11------10------(10)-|
|--------------------|-----------------------|
|--------------------|-----------------------|
|--------------------|-----------------------|
|--------------------|-----------------------|


  &
  Gtrs I, II
  E E E E E E E E    E  E  E  E  E  E  E  E
|-----------------|-------------------------|
|-----------------|-------------------------|
|-----------------|-12-12-12-12-12-12-12-12-|
|-8-8-8-8-8-8-8-8-|-10-10-10-10-10-10-10-10-|
|-8-8-8-8-8-8-8-8-|-10-10-10-10-10-10-10-10-|
|-8-8-8-8-8-8-8-8-|-10-10-10-10-10-10-10-10-|


   CHORUS 2
    Q.   H    +E    Q.   H    +E      3x
||----------------|-------------------||
||o---------------|------------------o||
||----------------|-------------------||
||--0----3----(3)-|-8----5----(5)-----||
||o-0----3----(3)-|-8----5----(5)----o||
||--0----3----(3)-|-8----5----(5)-----||


  E E E E E E E E    E  E  E  E  E  E  E  E
|-----------------|-------------------------|
|-----------------|-------------------------|
|-----------------|-12-12-12-12-12-12-12-12-|
|-8-8-8-8-8-8-8-8-|-10-10-10-10-10-10-10-10-|
|-8-8-8-8-8-8-8-8-|-10-10-10-10-10-10-10-10-|
|-8-8-8-8-8-8-8-8-|-10-10-10-10-10-10-10-10-|


 INTERVAL
  E E E E E E E E    E  E  E  E  E  E  E  E
|-----------------|-------------------------|
|-----------------|-------------------------|
|-----------------|-------------------------|
|-8-8-8-8-8-8-8-8-|-10-10-10-10-10-10-10-10-|
|-8-8-8-8-8-8-8-8-|-10-10-10-10-10-10-10-10-|
|-8-8-8-8-8-8-8-8-|-10-10-10-10-10-10-10-10-|


  E E E E E E E E    E  E  E  E  E  E  E  E
|-----------------|-------------------------|
|-----------------|-------------------------|
|-----------------|-------------------------|
|-0-0-0-0-0-0-0-0-|-10-10-10-10-10-10-10-10-|
|-0-0-0-0-0-0-0-0-|-10-10-10-10-10-10-10-10-|
|-0-0-0-0-0-0-0-0-|-10-10-10-10-10-10-10-10-|


  E E E E E E E E    W
|-----------------|-------|
|-----------------|-------|
|-----------------|-12----|
|-8-8-8-8-8-8-8-8-|-10----|
|-8-8-8-8-8-8-8-8-|-10----|
|-8-8-8-8-8-8-8-8-|-10----|


 BREAKDOWN
  Gtrs I, II
  q  e e E q.     q  e e E S S S S E   q  e e E q.     q  e e E S S S S E
|---------------|--------------------|---------------|--------------------|
|---------------|--------------------|---------------|--------------------|
|---------------|--------------------|---------------|--------------------|
|-0--0-0---0----|-0--0-0---8-8-8-8---|-0--0-0---0----|-0--0-0---8-8-8-8---|
|-0--0-0---0----|-0--0-0---8-8-8-8---|-0--0-0---0----|-0--0-0---8-8-8-8---|
|-0--0-0---0----|-0--0-0---8-8-8-8---|-0--0-0---0----|-0--0-0---8-8-8-8---|


 (SOLO?)
  Gtr III                                                 Gtrs I, II
  E E E Q  E Q    E E E Q  E Q    E E E Q  E Q    E E E E q  q
|---------------|---------------|---------------|---------------|
|---------------|---------------|---------------|---------------|
|---------------|---------------|---------------|---------------|
|-----0------3--|-----8------5--|-----0------3--|-----8---5--5--|
|---0------3----|---8------5----|---0------3----|---8-----5--5--|
|-0-----3-------|-8-----5-------|-0-----3-------|-8-----5-5--5--|


  Q.   H    +E    Q.   H    +E    E E E E E E E E    E  E  E  E  E  E  E  E
|---------------|---------------|-----------------|-------------------------|
|---------------|---------------|-----------------|-------------------------|
|---------------|---------------|-----------------|-12-12-12-12-12-12-12-12-|
|-0----3----(3)-|-8----5----(5)-|-8-8-8-8-8-8-8-8-|-10-10-10-10-10-10-10-10-|
|-0----3----(3)-|-8----5----(5)-|-8-8-8-8-8-8-8-8-|-10-10-10-10-10-10-10-10-|
|-0----3----(3)-|-8----5----(5)-|-8-8-8-8-8-8-8-8-|-10-10-10-10-10-10-10-10-|


   CHORUS 3
    Q.   H    +E    Q.   H    +E    Q.   H    +E    Q.   H    +E    3x
||----------------|---------------|---------------|-----------------||
||o---------------|---------------|---------------|----------------o||
||----------------|---------------|---------------|-----------------||
||--0----3----(3)-|-8----5----(5)-|-0----3----(3)-|-8----5----(5)---||
||o-0----3----(3)-|-8----5----(5)-|-0----3----(3)-|-8----5----(5)--o||
||--0----3----(3)-|-8----5----(5)-|-0----3----(3)-|-8----5----(5)---||


  E E E E E E E E    E  E  E  E  E E Q
|-----------------|---------------------*|
|-----------------|---------------------*|
|-----------------|-12-12-12-12-12------*|
|-8-8-8-8-8-8-8-8-|-10-10-10-10-10------*|
|-8-8-8-8-8-8-8-8-|-10-10-10-10-10------*|
|-8-8-8-8-8-8-8-8-|-10-10-10-10-10------*|


Duration Legend
---------------
W - whole; H - half; Q - quarter; E - 8th; S - 16th; T - 32nd; X - 64th; a - acciaccatura
+ - note tied to previous; . - note dotted; .. - note double dotted
Uncapitalized letters represent notes that are staccato (1/2 duration)
Irregular groupings are notated above the duration line
Duration letters will always appear directly above the note/fret number it represents the
duration for.  Duration letters with no fret number below them represent rests.  Multi-
bar rests are notated in the form Wxn, where n is the number of bars to rest for.  Low
melody durations appear below the staff

Tablature Legend
----------------
 h   - hammer-on
 p   - pull-off
 b   - bend
 pb  - pre-bend
 r   - bend release (if no number after the r, then release immediately)
 /\  - slide into or out of (from/to "nowhere")
 s   - legato slide
 S   - shift slide
  - natural harmonic
[n]  - artificial harmonic
n(n) - tapped harmonic
 ~   - vibrato
 tr  - trill
 T   - tap
 TP  - trem. picking
 PM  - palm muting
\n/  - tremolo bar dip; n = amount to dip
 \n  - tremolo bar down
 n/  - tremolo bar up
/n\  - tremolo bar inverted dip
 =   - hold bend; also acts as connecting device for hammers/pulls
 <>  - volume swell (louder/softer)
 x   - on rhythm slash represents muted slash
 o   - on rhythm slash represents single note slash

Misc Legend
-----------
 |  - bar
||  - double bar
||o - repeat start
o|| - repeat end
*|  - double bar (ending)
 :  - bar (freetime)
 $  - Segno
 &  - Coda
Tempo markers -  = BPM(8/16=s8/s16), where s8 = swing 8ths, s16 = swing 16ths


***************************************************************************************
* Generated using Power Tab Editor by Brad Larsen - http://powertab.guitarnetwork.org *
***************************************************************************************
Tap to rate this tab
# A B C D E F G H I J K L M N O P Q R S T U V W X Y Z