Song name
# A B C D E F G H I J K L M N O P Q R S T U V W X Y Z

Misc Unsigned Bands - A Tragedy Without Purpose - Letters For Liz tab

A nice little chord progression, that i "wrote" for a song i will be writing.


   D         U D   U D D         U D   
e|-0---------0-0---X-X-0---------0-0--X-X-----------|
B|-1---------1-1---X-X-3---------3-3--X-X-----------|
G|-0-1/2rest-0-0---X-X-0-1/2rest-0-0--X-X-----------|
D|-2---------2-2---X-X-0---------0-0--X-X-----------|
A|-3---------3-3---X-X-2---------2-2--X-X-----------|
E|-0---------0-0---X-X-0---------0-0--X-X-----------|

   D         U U    D  U U
e|-0---------0-0----0--0-0---|
B|-1---------1-1----1--1-1---|
G|-0-1/2rest-0-0----0--0-0---|
D|-2---------2-2----2--2-2---|
A|-0---------0-0----0--0-0---|
E|-0---------0-0----0--0-0---|

Whole Thing X2
Then on 3rd time


   D         U D   U D D         U D   
e|-0---------0-0---X-X-0---------0-0--X-X-----------|
B|-1---------1-1---X-X-3---------3-3--X-X-----------|
G|-0-1/2rest-0-0---X-X-0-1/2rest-0-0--X-X-----------|
D|-2---------2-2---X-X-0---------0-0--X-X-----------|
A|-3---------3-3---X-X-2---------2-2--X-X-----------|
E|-0---------0-0---X-X-0---------0-0--X-X-----------|

   D U D U D    D         U U    D  U U
e|-3-3-3-X-X-0---------0-0----0--0-0---|
B|-3-3-3-X-X-1---------1-1----1--1-1---|
G|-0-0-0-X-X-0-1/2rest-0-0----0--0-0---|
D|-0-0-0-X-X-2---------2-2----2--2-2---|
A|-2-2-2-X-X-0---------0-0----0--0-0---|
E|-3-3-3-X-X-0---------0-0----0--0-0---|

REPEAT Until song finishes, will add the rest when im done writing it
Tap to rate this tab
# A B C D E F G H I J K L M N O P Q R S T U V W X Y Z