Song name
# A B C D E F G H I J K L M N O P Q R S T U V W X Y Z

Misc Unsigned Bands - A Tragedy Without Purpose - Untitled tab

This is a song I've written, I am unsure of what to call it so Untitled will work for now.


e|---------------------|
B|----3----3---3---3---|
G|---------------------|
D|------0--------0-----|
A|--2--------2---------|
E|---------------------| x2

e|---------------------|
B|----5----5---5---5---|
G|---------------------|
D|------0--------0-----|
A|--4--------4---------|
E|---------------------| x2


e|---------------------|
B|----7----7---7---7---|
G|---------------------|
D|------0--------0-----|
A|--5--------5---------|
E|---------------------| x2

e|---------------------|
B|----12----12---11----|
G|---------------------|
D|-------0----------0--|
A|--10---------9-------|
E|---------------------| x1

REPEAT, UNTIL CONCLUSION OF SONG, LYRICS WILL COME LATER.



Tap to rate this tab
 
# A B C D E F G H I J K L M N O P Q R S T U V W X Y Z